Oops, an error
Loading. Please wait.

Sinfonia De Cuna bass

214 views 3 this week
no commentswrite comment
1 2 3 4 5
3 more votes to show rating
add to favorites
×
Save as Personal and add changes to this tab that will be seen only by you. Learn more ›
×
You can save this tab as Personal to edit and correct it or add notes. All changes will be seen only by you. Learn more »
launch autoscroll
font size
0
reset
guitar tuner
edit
Autoscroll
slow
fast
+/-
esc
set tempo
stop
Temazo de los marranos, el primero que escuché
y el primer video que ví de ellos
me parecio la raja, suena muy funk rock

Hay algunas partes sobre todos en los últimos coros
y en el puente los hammers no suenan muy bien
pero bueno, es la primera tablatura que hago


/  = Slide Up
h  = Hammer On
 = Slide Down ()


Intro:

G|----
D|----
A|----
E|----

---- ---------------
---- ---------------
-2-- -4-----4/16----
---- ------------2-

----------------- -----------------------
-----2-4-2------- -----2-4-4h5-4--2-4-2--
-2-4-------4-2-3- -2-4-------------------
----------------- -----------------------

----------------- --------------------------
-----2-4-2------- -----2-------4---4h5-4--2-
-2-4-------4-2-3- -2-4-----2-4--------------
----------------- --------------------------


Verso 1:

----------------- ----------------------
-----2-4-2------- -----2-4-4h5-4--2-4-2-
-2-4-------4-2-3- -2-4------------------
----------------- ----------------------

----------------- -------------------
-----2-4-2------- -------------------
-2-4-------4-2-3- -2-4-2-------------
----------------- -------4-3-2-0-2-0-

----------------- ------------------------
-----2-4-2------- -----2-4-4h5-4--2-4-2---
-2-4-------4-2-3- -2-4------------------0-
----------------- ------------------------

----------------- -------------------
-----2-4-2------- -------------------
-2-4-------4-2-3- -2-4-2-------------
----------------- -------4-3-2-0-2-0-


Coro 1:

------------------- -----------------
------------------- --------4-4------
---------2-2-----2- -4/-7-------7--4-
-2---5-------2----- -----------------

------------------- -----------------
-----44-5-5-4------ -----------------
-5-------------7-5- -4-4-------------
------------------- -----7-7-5-5-4-0-

---------------- ----------------
---------------- -------4-4------
-------2-2----2- -4/-7------7--4-
-2--5------2---- ----------------

------------------- --------------------
-----44-5-5-4------ --------------------
-5-------------7-5- -7-7-7-7-7--5h7-5-0-
------------------- --------------------


Verso 2:

----------------- ------------------------
-----2-4-2------- -----2-4-4h5-4--2-4-2---
-2-4-------4-2-3- -2-4------------------0-
----------------- ------------------------

----------------- -------------------
-----2-4-2------- -------------------
-2-4-------4-2-3- -2-4-2-------------
----------------- -------4-3-2-0-2-0-

----------------- ------------------------
-----2-4-2------- -----2-4-4h5-4--2-4-2---
-2-4-------4-2-3- -2-4------------------0-
----------------- ------------------------

----------------- -------------------
-----2-4-2------- -------------------
-2-4-------4-2-3- -2-4-2-------------
----------------- -------4-3-2-0-2-0-


Coro 2:

------------------ ----------------
------------------ -------4-4------
--------2-2-----2- -4/-7------7--4-
-2---5------2----- ----------------

------------------- -----------------
-----44-5-5-4------ -----------------
-5-------------7-5- -4-4-------------
------------------- -----7-7-5-5-4-0-

------------------ ----------------
------------------ -------4-4------
-------2-2------2- -4/-7------7--4-
-2---5------2----- ----------------

-------------------- -------------------
-----44-5-5-4------- -------------------
-5--------------7-5- -7-7-7-7-7-7-7-7-7-
-------------------- -------------------


Puente:

------------------------------- --------------------------4---
-0----0h2-0--------------4-2--- -0----0h2-0------/4-4-4-2---2-
-------------0-4-------------4- ------------0-4---------------
------------------0-2---------- ------------------------------

---------------------------------- --------------------------------------
-0----0h2-0-------------2h4-2-0--- -0--0--0--0---0-2-22-22-5-2---0h2-0---
-------------0-4----------------4- ------0--0---0--------------5-------0-
------------------0-2------------- --------------------------------------


Hacia El Solo:

----------------- ------------------------
-----2-4-2------- -----2-4-4h5-4--2h4h2---
-2-4-------4-2-3- -2-4------------------4-
----------------- ------------------------

----------------- -4h6-4---4----------------
-----2-4-2------- -------6---6-5-4--2-4-2---
-2-4-------4-2-3- ------------------------4-
----------------- --------------------------


Solo Guitarra:

----------------- ----------------------
-----2-4-2------- -----2-4-4h5-4--2-4-2-
-2-4-------4-2-3- -2-4------------------
----------------- ----------------------

----------------- --------------------
-----2-4-2------- ------2-4-4h5-4-2---
-2-4-------4-2-3- -2-4--------------4-
----------------- --------------------

----------------- ------------------------
-----2-4-2------- -----2-4-4h5-4--2h4h2---
-2-4-------4-2-3- -2-4------------------4-
----------------- ------------------------

----------------- --------------------------
-----2-4-2------- --------------------------
-2-4-------4-2-3- -2h4-2---2----------------
----------------- -------4---4-3-2--0-2-0-2-


Coro 3:

----------------- ----------------
----------------- -------4-4------
--------2-2-----2- -4/-7------7--4-
-2--5-------2----- ----------------

------------------- -----------------
-----44-5-5-4------ -----------------
-5-------------7-5- -4-4-------------
------------------- -----7-7-5-5-4-0-

----------------- ----------------
----------------- -------4-4------
--------2-2-----2- -4/-7------7--4-
-2--5-------2----- ----------------

------------------- ------------------
----44-5-5-4------- ------------------
-5-------------7-5- -7-7-7-7-7-7-2---
------------------- ----------------0-

----------------- ----------------
----------------- -------4-4------
--------2-2----2- -4/-7------7--4-
-2--5-------2---- ----------------

------------------- -----------------
----44-5-5-4------- -----------------
-5-------------7-5- -4-4-------------
------------------- -----7-7-5-5-4-0-

----------------- ----------------
----------------- -------4-4------
--------2-2----2- -4/-7------7--4-
-2--5-------2---- ----------------

------------------- ---------------
-----44-5-5-4------ ---------------
-5-------------7-5- -7-7-7-7-7--2-
------------------- ---------------


Coro (solo Instrumentos)

------------------ ----------------
------------------ -------4-4------
--------2-2-----2- -4/-7------7--4-
-2--5-------2----- ----------------

--------------------- ----------------------
----44-5-5-4--------- ----------------------
-5---------------5h7- -4-4-------4-4h5h4----
---------------7----- -----7-7-5---------7-

------------------ -----------------------
------------------ ------4-4h5-4---4------
--------2-2-----2- -4--7---------7---7--4-
-2--5-------2----- -----------------------

------------------- -----------------------
----4-4-5-5-4------ -2-22-22-5-2---0h2-0---
-5-------------0-5- -------------5-------0-
------------------- -----------------------


Hacia El Final:

----------------- -------------------------
-----2-4-2------- -----2-4-4h5-4--2-4-2----
-2-4-------4-2-3- -2-4-------------------0-
----------------- -------------------------

----------------- ---------------------
-----2-4-2------- -----2------4------2-
-2-4-------4-2-3- -2-4----2-4----2-4---
----------------- ---------------------


Fin:

---
---
-4-
---

            
            
Suggest correction
Creating personal tab
Creating personal tab
You can edit any tab online and save it as your Personal.

You can edit, replace or remove any tab part or add personal notes – all changes will be seen only by you.

Personal tabs can be accessed anytime from any device, even offline.
Learn more »
Give kudos to tab author, rate the tab!
1 2 3 4 5
comments
print report bad tab
guest
Wanna post a correction for this tab? Suggest correction