Oops, an error
Loading. Please wait.

Tamalalacosa tab

10 views 1 this week
no commentswrite comment
1 2 3 4 5
3 more votes to show rating
add to favorites
×
Save as Personal and add changes to this tab that will be seen only by you. Learn more ›
×
You can save this tab as Personal to edit and correct it or add notes. All changes will be seen only by you. Learn more »
launch autoscroll
font size
0
reset
how to read this tab
guitar tuner
edit
Autoscroll
slow
fast
+/-
esc
set tempo
stop
INTRO:

A.
  SI
|-----|
|-----|
|--4--|
|--4--|
|--2--|
|-----|

SI 
(bajo solo)

B.
|--2-------2----------------------------|
|----3---3---3----3-5-3-2----3-5-3-2----|
|------4-------4----------4----------4--|
|---------------------------------------|
|---------------------------------------|
|---------------------------------------|

C.
|--2-------2-3-2---0----|
|----3---3-------3---3--|
|------4----------------|
|-----------------------|
|-----------------------|
|-----------------------|

D.
|----------3-2--------|
|----2-3-5-----5-3-2--|
|--4------------------|
|---------------------|
|---------------------|
|---------------------|


VERSO:

  MI        FA#       DO#       SI
|-----|   |-----|   |-----|   |-----|
|-----|   |-----|   |-----|   |-----|
|--4--|   |--6--|   |-----|   |-----|
|--2--|   |--4--|   |--6--|   |--4--|
|-----|   |-----|   |--4--|   |--2--|
|-----|   |-----|   |-----|   |-----|

SI
Tamalalacosa en el medio oriente
MI
en el primer mundo y el viejo continente
DO#
crisis económica en argentina
MI                 FA#
y en toda nuestra américa latina
SI
tamalalacosa 
MI
con la energía y la ecología
DO#
solo basura en televisión
MI            FA#
ya no soporto la contaminación


CORO:

  MI        FA#       DO#       SI        LA        RE
|-----|   |-----|   |-----|   |-----|   |-----|   |-----|
|-----|   |-----|   |-----|   |-----|   |-----|   |-----|
|--4--|   |--6--|   |-----|   |-----|   |-----|   |-----|
|--2--|   |--4--|   |--6--|   |--4--|   |--2--|   |--7--|
|-----|   |-----|   |--4--|   |--2--|   |--0--|   |--5--|
|-----|   |-----|   |-----|   |-----|   |-----|   |-----|

FA#              MI
Veo tanta información
FA#              MI
pero ninguna solución
   SI - LA - SI
no sé que hacer
REm DO#m SIm DO#m SI
para estar mejor


PARTE REGGAE:

 MIm        FA#m       SIm       RE
|--7--|   |--9---|   |--7--|   |--5--|
|--8--|   |--10--|   |--7--|   |--7--|
|--9--|   |--11--|   |--7--|   |--7--|
|--9--|   |--11--|   |--9--|   |--7--|
|--7--|   |--9---|   |--9--|   |--5--|
|-----|   |------|   |--7--|   |-----|


MIm - FA#m - SIm - SIm (x2)

MIm
Y solo muerto compendí
FA#m
todo el tiempo que perdí
SIm
encontrando todo mal
SIm
se me fue mi vida mortal
MIm
ustedes que están vivos no comentan mi error
FA#m
disfruten el momento haciendo algo mejor
SIm
sé que nacimos en un mundo injusto
SIm
pero hay que ser más astuto que inculto

FA#m              MIm
Veo tanta institución
FA#m                MIm
que ofrece una vida mejor
SI
pero solo de uno depende
Fa#mm Mimm Rem Mimm Sim
ser y estar mejor


ORDEN:

INTRO (A-B-C-D-B-C)
VERSO
CORO
VERSO
CORO
INTRO (B-C-D-B-C)
CORO
PARTE REGGAE

            
            
Suggest correction
Creating personal tab
Creating personal tab
You can edit any tab online and save it as your Personal.

You can edit, replace or remove any tab part or add personal notes – all changes will be seen only by you.

Personal tabs can be accessed anytime from any device, even offline.
Learn more »
Give kudos to tab author, rate the tab!
1 2 3 4 5
comments
print report bad tab
guest
Wanna post a correction for this tab? Suggest correction