Oops, an error
Loading. Please wait.

Volantin bass

version 2
version 2

Whole song

Interactive

79 views 1 this week
no commentswrite comment
1 2 3 4 5
3 more votes to show rating
add to favorites
×
Save as Personal and add changes to this tab that will be seen only by you. Learn more ›
×
You can save this tab as Personal to edit and correct it or add notes. All changes will be seen only by you. Learn more »
launch autoscroll
font size
0
reset
guitar tuner
edit
Autoscroll
slow
fast
+/-
esc
set tempo
stop
Intro
|------------------------|
|-2h4-2------------------|
|-------4h5-4--4-5-2-----|
|--------------------5-3-|

Verso (Miro hacia el cielo....)
|----------------------------------------------------------|
|----7------------7------------------54-------4h554--------|
|---7---4~-5-7---7---5~-7-5-------5-5--5----5------5-------|
|-5-----------5-------------7-5-3~-------33~---------------|

 (No se imaginan.....)

|---------------------------------------------------------|
|----7------------7---------------54------7575------------|
|---7---4~-5-7---7-5----------5-5---5---5-----75----------|
|-5-----------5-----0-2-5-4-3~--------3~--------753-------|

  (Hago las tirantes y me pongo........)
|---------------------------------|
|----------------------5----------|
|----------5--------5h7--75-------|
|-3-3--3-3---3--555--------5/-----|

 (Mas alla del cielo.....)
|-----6-7-9-7-6-------6------------------------|
|-7-9-----------9-7-9----9-7---5---------------|
|--------------------------------757---5h7p5---|
|-------------------------------------------7--|

 (Saco mi pavo......)
|----------------------------------------|
|----7------------7----------------------|
|---7--4~-5-7---7---5~-7-5---------------|
|-5-----------5-----------0-5-432000-----|

Coro (A encumbrar volantin.....)
|--------------------------------------------------|
|--------------------------------------------------|
|--------------2----4-5---------2-----5-4--3-2-1-0-|
|-5/12--5-5-5---2--------5-5-5---2----------------|

(Romperemos hoy la ley de gravedad)
|--------------------------------|
|-4-4-2-2------------------------|
|---------5-5-5-4-4-2-2-2-4-2----|
|--------------------------------|

(A elevar volantin........)      (De este cielo...)
|------------------------------------------------------|
|---------------------------------4-4-2----------------|
|-----2---4-5--------2----4-5-----------4-5-44-2-4-2-0-|
|-555---2------5-5-5---2-------------------------------|

|------------------------|
|-2h4-2------------------|
|-------4h5-4--4-5-2-----|
|--------------------5-3-|

Verso (No importa el color....)
|----------------------------------------------------------|
|----7------------7------------------54-------4h554--------|
|---7---4~-5-7---7---5~-7-5-------5-5--5----5------5-------|
|-5-----------5-------------7-5-3~-------33~---------------|


Verso (Las nubes se correran.....)
|---------------------------------------------------------|
|----7------------7---------------54------7575------------|
|---7---4~-5-7---7-5----------5-5---5---5-----75----------|
|-5-----------5-----0-2-5-4-3~--------3~--------753-------|

verso (Dame unos segundos para hacerte realidad........)
|---------------------------------|
|----------------------5----------|
|----------5--------5h7--75-------|
|-3-3--3-3---3--555--------5/-----|

Verso (Tengo en mi mano lo que vienes a buscar.....)
|-----6-7-9-7-6-------6------------------------|
|-7-9-----------9-7-9----9-7---5---------------|
|--------------------------------757---5h7p5---|
|-------------------------------------------7--|
Verso (......Intensa emocion......)

|----------------------------------------|
|----7------------7----------------------|
|---7--4~-5-7---7---5~-7-5---------------|
|-5-----------5-----------0-5-432000-----|


Coro 1 vez
(Interludido)
|----------------------------------------------------|
|----------------------------------------------------|
|-----2-4-5-4-2--------2-5-4------2-4-5-4-2--------2-|
|-3-5-----------5--3-5--------3-5-----------5--3-5---|

|------------------------------|
|------------------------------|
|----------2-4-5-4-----2-4-2---|
|-5-3--3-5---------3-5---------|

|-------------------------------------------------------|
|-------------------------------------------------------|
|-----2-4-5-4-2-------2---------5-4-0-2---5-4-0-2-0-2-4-|
|-3-5-----------5-3-5---5-3---3---------3---------------|

|---------------------------|
|-----------------2-4-2-----|
|--5-4-0-2-0-2-4-------5-4--|
|-3-------------------------|

 (Dime donde vas............)
|------------------------------------------------------------|
|------------------------------------------------------------|
|-2-0---5-5h7-4----2-0---5-5h7-4----2-0----4h5-4--7-6-5------|
|------------------------------------------------------------|


Verso
Coro 2 veces

|------------------------------|
|-2h4-2------------------------|
|-------4h5-4--4-5-2-----------|
|--------------------5-3~~-----|

un saludo a todos lo hermanos marranos
espero que les guste el tema esta re-bueno
medio mezcladito con el del chancho 6
pero suena bien lo siento "bien mio" ja,ja,ja,ja,ja...
VIVA CHILE MIERDA.... Y LOS CHANCHO EN PIEDRA!!!!!!!!!!!!!!!

            
            
Suggest correction
Creating personal tab
Creating personal tab
You can edit any tab online and save it as your Personal.

You can edit, replace or remove any tab part or add personal notes – all changes will be seen only by you.

Personal tabs can be accessed anytime from any device, even offline.
Learn more »
Give kudos to tab author, rate the tab!
1 2 3 4 5
comments
print report bad tab
guest
Wanna post a correction for this tab? Suggest correction