Oops, an error
Loading. Please wait.

Volantin tab

version 3
version 3

Whole song

Interactive

151 views 1 this week
no commentswrite comment
1 2 3 4 5
3 more votes to show rating
add to favorites
×
Save as Personal and add changes to this tab that will be seen only by you. Learn more ›
×
You can save this tab as Personal to edit and correct it or add notes. All changes will be seen only by you. Learn more »
launch autoscroll
font size
0
reset
how to read this tab
guitar tuner
edit
Autoscroll
slow
fast
+/-
esc
set tempo
stop
'Volantin' de Chancho en Piedra

INTRO
e-----2-0----------------!
B---------3-2-3-2-0------!
G-------------------2-0--!
D------------------------!
A------------------------!
E------------------------!


NOTAS

LA7 SOL7 FA7

e---9---- ---7--- ---5---
B---8---- ---6--- ---4---
G---9---- ---7--- ---5---
D---7---- ---5--- ---3---
A-------- ------- -------
E-------- ------- -------

NOTAS CORO

MI LA FA#m LA FA#m
e------- -------- ---2---
B------- ---2---- ---2---
G-1----- ---2---- ---2---
D---2--- ---2---- ---4---
A---2--- -------- ---4---
E------- -------- ---2---

FA#m MI RE SI7
---2--- ---2---
---3--- ---0---
---2--- ---2---
------- ---1---
------- ---2---
------- -------
SOLO
e-----2-0----------------!---------------2-5-2-0---------------!
B---------3-2-3-2-0------!---------2-3-5---------3-2-3-2-0-----!
G-------------------2-0--!-----2-4-------------------------2-0-!
D------------------------!---5---------------------------------!
A------------------------!-------------------------------------!
E------------------------!-------------------------------------!

2X
e-------------------------------!
B-------------------------------!
G-------------------------------!
D-----------0-------------0-----!
A-4---0-2-4---4-2-0---0-2---4---!
E-2-3---------------3-----------!


e---------------!--------------------!
B---------------!--------------------!
G---------------!--------------------!
D-----0---------!-----0-4-2-0--------!
A-------4-0-2---!-2-4---------4/16---!
E---3-----------!--------------------!


Miro hacia el cielo, con mi derecha me pongo a elevar
No se imaginan todo el placer que esto a mi me da
Y no te miento
Hago los tirantes y me pongo a encumbrar
Más allá del cielo vamos juntos a llegar.
Saco mi pavo, lo hago de nuevo, vuelvo a gozar

coro

A encumbrar volantin, quiero llegar a ti
romperemos hoy la ley de gravedad
a encumbrar volantin que me lleve hasta el fin de este cielo
No importa el color o el tamaño que este tenga
la imagen de una bella musa todo lo resuelva para mi
las nubes se correran cuando sople el viento a mi favor
Estaré atento para no caer del firmamento
Dame unos segundos para hacerte realidad

..... entra en mi imaginacion....

tengo en mi mano lo que vienes a buscar....

....que intensa emocion

quiero que dure una eternidad

coro

dime donde vas ..... te podré alcanzar....

sensacion de libertad

de niño descubri el placer quye da encumbrar
Siempre lo he hecho, siempre lo haré, nunca voy a parar
una vez me fui cortado junto a una estrella fugaz
le pedi que de ser niño nunca me fuera a olvidar.
El hilo pa delante, jalo el hilo para atrás
Como todo en la vida hay que aprender a disfrutar
No espero el 18 para ponerme a encumbrar

coro

un saludo a todos los marranos....especialmente antofa...b-13

            
            
Suggest correction
Creating personal tab
Creating personal tab
You can edit any tab online and save it as your Personal.

You can edit, replace or remove any tab part or add personal notes – all changes will be seen only by you.

Personal tabs can be accessed anytime from any device, even offline.
Learn more »
Give kudos to tab author, rate the tab!
1 2 3 4 5
comments
print report bad tab
guest
Wanna post a correction for this tab? Suggest correction