Oops, an error
Loading. Please wait.

Volantn Tab

51 views 1 this week
no commentswrite comment
1 2 3 4 5
3 more votes to show rating
add to favorites
launch autoscroll
font size
0
reset
how to read this tab
guitar tuner
Autoscroll
slow
fast
+/-
esc
set tempo
stop
Help us to improve Ultimate-Guitar.com Take our survey!
×
Author
|-----------------------------------------------------------------|
|-----------------------------------------------------------------|
|-----------------------------------------------------------------|
|-----------------------------------------------------------------|
|------2-4-5-4-2---------2-5-4-------2-4-5-4-2---------2-5--------|
|--3-5-----------5---3-5---------3-5-----------5---3-5-----3------|

|------------------------------------------------------------------|
|------------------------------------------------------------------|
|------------------------------------------------------------------|
|------------------------------------------------------------------|
|-----2-4-5-5------2-5-4------2-4-5-4-2---------2-5----------------|
|-3-5----------3-5--------3-5-----------5---3-5-----3--------------|

|----------------------------------------------|
|----------------------------------------------|
|----------------------------------------------|
|--------------------------2-4-5-4---2---------|
|---5-4---2----5-4---2-4-5---------5-----------|
|-3-----5----3-----5---------------------------|

(Voz junto con la guitarra, antes de la 3ra estrofa)

|---------------|-------------------|-------------------------|
|---------------|-------------------|-------------------------|
|---------------|-------------------|-------------------------|
|-2h4-2---2-----|-2h4-2--5-4--------|-2h4-2--5-4--7-6-5-------|
|-------5---4---|-----------4-------|-------------------------|
|---------------|-------------------|-------------------------|
Suggest correction
Give kudos to tab author, rate the tab!
1 2 3 4 5
comments
print report bad tab
guest
You may want to rate the tab now too:
select rating
Wanna post a correction for this tab? Suggest correction