Oops, an error
Loading. Please wait.

Voy A Resusitar bass

87 views 1 this week
no commentswrite comment
1 2 3 4 5
3 more votes to show rating
add to favorites
×
Save as Personal and add changes to this tab that will be seen only by you. Learn more ›
×
You can save this tab as Personal to edit and correct it or add notes. All changes will be seen only by you. Learn more »
launch autoscroll
font size
0
reset
guitar tuner
edit
Autoscroll
slow
fast
+/-
esc
set tempo
stop
Aquí una de las canciones para mi mas buenas de todo sus discos y
de sus canciones ahí ta pa q la saquen
= me demore un poco en sacarla asi q aprovéchenla bien


Intro
g------------------------------------------------------|
d-----4-2-4----4-4-2-4----4-2-4------------------------|
a-------------------------------0-2-3-2-0--------------|
e---2------------------2--------------------2-0--------|

g------------------------------------------------------|
d-----4-2-4----4-4-2-4----4-2-4------------------------|
a-------------------------------0-2-3-2-0--------------|
e----------------------2------------------2------------|

g------------------------------------------------------|
d-----4-2-4----4-4-2-4----4-2-4------------------------|
a-------------------------------0-2-3-2-0--------------|
e----------------------2------------------2-0----------|


g---------------------------------------------------------|
d-----4-2-4----4-4-2-4----4-2-4--4-2----------------------|
a-----------------------------------4-2-------------------|
e----------------------2----------------4-----------------|

Verso

g----------------2-----------------------------2-------------------|
d-------------2-4-4--2-4-2------------------2-4--4---2-4-2---------|
a---------2-4-------------4-2-----2-----2-4----------------4-2-----|
e---2--------------------------------------------------------------|
g-------------------------------------------------------------------|
d------4--66--4?--------------------------------22------------------|
a---4-----------6-4-2--0-2-0--2-4-2----------2-4-----44--22---------|
e-----------------------------------2----2-4----------------44------|

Precoro

g-----------------------------------44--2-4-2--44--2-4-2---4-2--------|
d-----44--2-4-2----44--2-4-2-----------------------------------4-2----|
a--------------4------------4-2---2-----------------------------------|
e---2------------2----------------------------------------------------|

g-----66--4-6-4---------------------------------------------------|
d----------------------------44--2-4-2------44--2-4-2-------------|
a---4-----------4--2-4-2-0-------------4--------------4-2-0-------|
e--------------------------2--------------2-----------------------|

Coro

g------------------------------------------------------|
d-----4-2-4----4-4-2-4----4-2-4------------------------|
a-------------------------------0-2-3-2-0--------------|
e---2------------------2--------------------2-0--------|

g---------------------------------------------------------|
d-----4-2-4----4-4-2-4----4-2-4--4-2----------------------|
a-----------------------------------4-2-------------------|
e----------------------2----------------4-----------------|


Verso 2

g----------------2-----------------------------2-------------------|
d-------------2-4-4--2-4-2------------------2-4--4---2-4-2---------|
a---------2-4-------------4-2-----2-----2-4----------------4-2-----|
e---2--------------------------------------------------------------|
g-------------------------------------------------------------------|
d------4--66--4?--------------------------------22------------------|
a---4-----------6-4-2--0-2-0--2-4-2----------2-4-----44--22---------|
e-----------------------------------2----2-4----------------44------|

Precoro 2

g-----------------------------------44--2-4-2--44--2-4-2---4-2--------|
d-----44--2-4-2----44--2-4-2-----------------------------------4-2----|
a--------------4------------4-2---2-----------------------------------|
e---2------------2----------------------------------------------------|

g-----66--4-6-4---------------------------------------------------|
d----------------------------44--2-4-2------44--2-4-2-------------|
a---4-----------4--2-4-2-0-------------4--------------4-2-0-------|
e--------------------------2--------------2-----------------------|

Coro 2

g------------------------------------------------------|
d-----4-2-4----4-4-2-4----4-2-4------------------------|
a-------------------------------0-2-3-2-0--------------|
e---2------------------2--------------------2-0--------|

g---------------------------------------------------------|
d-----4-2-4----4-4-2-4----4-2-4--4-2----------------------|
a-----------------------------------4-2-------------------|
e----------------------2----------------4-----------------|

Interludio

g-----------------------------------------------------------|
d-----------------------------------------------------------|
a---------------2-0-2--4-2?444444444/22222222-0-2-----------|
e--2-0-2--5-3-5---------------------------------------------|

g------------------------------------------------------------------|
d------------------------------------------------------------------|
a---------------2-0-2--4-2--4444-5-4-5-7-5-4-7777-5555-4444-2222---|
e--2-0-2--5-3-5----------------------------------------------------|

solo en bajo 1

g--------------------------------------44p2-4444p2-----66p4-66-4-6-2---|
d---44p2-4444p2------77p5-7777p5------------------4------------------5-|
a--------------4-----------------7---2---------------4-----------------|
e-2-----------------5--------------------------------------------------|


Mi alma a vuelto...

g--------------------------------------44p2-4444p2-----66p4-66-4-6-2---|
d---44p2-4444p2------77p5-7777p5------------------4------------------5-|
a--------------4-----------------7---2---------------4-----------------|
e-------------------5--------------------------------------------------|

Solo de bajo 2


g--------------------------------------44p2-4444p2-----66p4-66-4-6-2---|
d---44p2-4444p2------77p5-7777p5------------------4------------------5-|
a--------------4-----------------7---2---------------4-----------------|
e-------------------5--------------------------------------------------|

No hay nada q?...


g--------------------------------------44p2-4444p2-----66p4-66-4-6-2---|
d---44p2-4444p2------77p5-7777p5------------------4------------------5-|
a--------------4-----------------7---2---------------4-----------------|
e-------------------5--------------------------------------------------|


Interludio
g------------------------------------------------------------------|
d------------------------------------------------------------------|
a---------------2-0-2--4-2--4444-5-4-5-7-5-4-22222222--------------|
e--2-0-2--5-3-5----------------------------------------------------|


Solo de bajo 3

g-----------------------------------424-444-2------646-666-4--------|
d---424-444-2-------757-777-5----------------4-2------------6-4-----|
a------------4-2-------------7-5--2--------------4------------------|
e-2---------------5-------------------------------------------------|


g---------------------------------------44-2-4--------4-2------------|
d---4-2-4-444-2-------7-5-7-777-5-------------4-2--------4-2---------|
a--------------4-2---------------7-5--2-----------4-4-------4-2------|
e-2-----------------5------------------------------------------------|


Solo de bateria y dice cosas raras q casi no se entienden.


Mi alma a vuelto...


g--------------------------------------44p2-4444p2-----66p4-66-4-6-2---|
d---44p2-4444p2------77p5-7777p5------------------4------------------5-|
a--------------4-----------------7---2---------------4-----------------|
e--2----------------5--------------------------------------------------|

No hay nada q?...


g--------------------------------------44p2-4444p2-----66p4-66-4-6-2---|
d---44p2-4444p2------77p5-7777p5------------------4------------------5-|
a--------------4-----------------7---2---------------4-----------------|
e-------------------5--------------------------------------------------|


solo en bajo 4


g--------------------------------------44p2-4444p2-----66p4-66-4-6-2---|
d---44p2-4444p2------77p5-7777p5------------------4------------------5-|
a--------------4-----------------7---2---------------4-----------------|
e-------------------5--------------------------------------------------|


Mi alma a vuelto...


g--------------------------------------44p2-4444p2-----66p4-66-4-6-2---|
d---44p2-4444p2------77p5-7777p5------------------4------------------5-|
a--------------4-----------------7---2---------------4-----------------|
e-------------------5--------------------------------------------------|

Solo de guitarra

g---------------------------------------------------------|
d---------------------------------------------------------|
a-----------------------2222222222/4444444444-------------|
e?2222222222/5555555555-----------------------------------|

No hay nada q?...

g---------------------------------------------------------|
d---------------------------------------------------------|
a-----------------------2h42h42h42h42h4/4444444444--------|
e?2222222222/5555555555-----------------------------------|


Mi alma a vuelto...(X2)

g--------------------------------------44p2-4444p2-----66p4-66-4-6-2---|
d---44p2-4444p2------77p5-7777p5-----------------4-------------------5-|
a--------------4-----------------7---2---------------4-----------------|
e--2----------------5--------------------------------------------------|


solo en bajo 5


g--------------------------------------44p2-4444p2-----66p4-66-4-6-2---|
d---44p2-4444p2------77p5-7777p5------------------4------------------5-|
a--------------4-----------------7---2---------------4-----------------|
e-------------------5--------------------------------------------------|


Voy a resucitar...
g--------------------------------------44p2-4444p2-----66p4-66-4-6-2---|
d---44p2-4444p2------77p5-7777p5-----------------4-------------------5-|
a--------------4-----------------7---2---------------4-----------------|
e--2-----------------5-------------------------------------------------|

Interludio

g----------------------|
d----------------------|
a---------------2-0-2--|
e--2-0-2--5-3-5--------|
Fin


Espero que les guste esta partitura pa bajo y que este
buena no ma po.
Si tienen algun reclamo no duden en escribirme a mi correo
Y ahí me dicen lo q esta mal y eso.
Nos vemos en otra ocasión
Ah y un gran saludo pa los xangos nuestra banda
de aquí de chillan
City y como de costumbre

Viva chile mierda¡¡¡¡ Y los chancho en piedra¡¡¡

            
            
Suggest correction
Creating personal tab
Creating personal tab
You can edit any tab online and save it as your Personal.

You can edit, replace or remove any tab part or add personal notes – all changes will be seen only by you.

Personal tabs can be accessed anytime from any device, even offline.
Learn more »
Give kudos to tab author, rate the tab!
1 2 3 4 5
comments
print report bad tab
guest
Wanna post a correction for this tab? Suggest correction