Oops, an error
Loading. Please wait.

Voy A Resusitar tab

106 views 1 this week
no commentswrite comment
1 2 3 4 5
3 more votes to show rating
add to favorites
×
Save as Personal and add changes to this tab that will be seen only by you. Learn more ›
×
You can save this tab as Personal to edit and correct it or add notes. All changes will be seen only by you. Learn more »
launch autoscroll
font size
0
reset
how to read this tab
guitar tuner
edit
Autoscroll
slow
fast
+/-
esc
set tempo
stop
aqui esta la mejor cancion, a mi criterio, de los 
chanchos, ojala le guste.
antes que se me olvide, en voy y vuelvo, justo en el precoro,
todo va un espacio mas adelante. el resto esta bien


intro/pre-coro
e------------------------------------------------------
b------------------------------------------------------
g------------------------------------------------------
d-----4-2-4---4--4-2-4----4-2-4------------------------
a-------------------------------0-2-3-2-0--------------
e---2------------------2--------------------2-0-2------

e------------------------------------------------------
b------------------------------------------------------
g------------------------------------------------------
d--4-2-4----4-4-2-4----4-2-4---------------------------
a-----------------------------0-2-3-2-0----------------
e-------------------2---------------------2-0----------

e------------------------------------------------------
b------------------------------------------------------
g------------------------------------------------------
d---4-2-4------4-4-2-4-----4-2-4-----------------------
a---------------------------------0-2-3-2-3-0----------
e-----------------------2----------------------2-0-2---

e------------------------------------------------------
b------------------------------------------------------
g------------------------------------------------------
d---4-2-4---4-4-2-4-----4-2-4--------------------------
a------------------------------------------------------
e--------------------2---------------------------------


verso (despues del intro, y con wha-wha)


 cuando triste voy
e------------------------9--
b-----------------------10--
g--9h11-9----------------9--
d---------11--9-9h11----11--
a------------------------9--
e------------------------9--

  cargando en mi espalda
e------------------------9--
b------------------------9--
g--9h11-9----------------9--
d---------11--9-9h11-----9--
a-----------------------11--
e------------------------9--

  derrotas de batallas uah
e------------------------7--
b------------------------7--
g------------------------8--
d--9h11-9----------------9--
a---------11--9-9h11-----9--
e------------------------7--

  el cuerpo ya me falla
e---------------------------9--
b--------------------------10--
g--9h11-9-11-11/13/11-9-----9--
d--------------------------11--
a---------------------------9--
e---------------------------9--


       F#m7
y yo soy el favorito
       C#m7
en volver a la vida
    B                     B-A#-A
y no existe erejia que me asegurara
       F#m7
que esperen mi retorno

pase al coro, en quintas( se llamara parte d)

b--4-2-4----7-5-7----9-7-9-----11--9-11-------13-------
e--2-0-2----5-3-5----7-5-7------9--7--9-------11-------
se toca dos veces


coro
siempre lo mismo, se pueden tocor en quintas o en acordes


   F#m                   A  
mi alma a vuelto a mi cuerpo
                  B
ya no me siento muerto
 B
me alejo de las sombras
  C#m
persibo el calor


solo1

e--12h14--12-----------------12h14--12-----------------
b------------14-12--12h14---------------14-12--12h14---
g-------------------------9--------------------------11

e--12h14--12-----------------12h14--12-----------------
b------------14-12--12h14---------------14-12--12h14---
g-------------------------14-------------------------12
 esto se toca dos veces


solo 2, cuando se canta 'voy a resusitar...'

e---------------------------  se toca 4 veces
b--12h14-12----12-----------
g-----------14----14---11---


ojala les guste, y viva chile mierda y los chancho en
piedra!!!!!!!!!!!!
si quieren unirse al funk club del funk chileno metance a

            
            
Suggest correction
Creating personal tab
Creating personal tab
You can edit any tab online and save it as your Personal.

You can edit, replace or remove any tab part or add personal notes – all changes will be seen only by you.

Personal tabs can be accessed anytime from any device, even offline.
Learn more »
Give kudos to tab author, rate the tab!
1 2 3 4 5
comments
print report bad tab
guest
Wanna post a correction for this tab? Suggest correction