Oops, an error
Loading. Please wait.

Voy Y Vuelvo bass

56 views 1 this week
no commentswrite comment
1 2 3 4 5
3 more votes to show rating
add to favorites
×
Save as Personal and add changes to this tab that will be seen only by you. Learn more ›
×
You can save this tab as Personal to edit and correct it or add notes. All changes will be seen only by you. Learn more »
launch autoscroll
font size
0
reset
guitar tuner
edit
Autoscroll
slow
fast
+/-
esc
set tempo
stop
Intro
g|---------|
d|---------|
a|--18\----|
e|---------|

Verso
g|------------|-----8-10-|------------|----------|
d|--------6-8-|----------|--------6-8-|------6/8-|
a|--6-6-8-----|-6-6------|--6-6-8-----|--6-6-----|
e|------------|----------|------------|----------|

g|------------|----------|
d|-------4-6--|----------|
a|--4-4-------|-2-2-2-4--|
e|------------|----------|

g|------------|-------6-8-|------------|----------|
d|--------6-8-|-----6-----|--------6-8-|------6/8-|
a|--6-6-8-----|-6-6-------|--6-6-8-----|--6-6-----|
e|------------|-----------|------------|----------|

g|------------|----------|
d|-------4-6--|----------|
a|--4-4-------|-2-2-2-4--|
e|------------|----------|

Puente

g|----------------|-----------------|
d|----------------|-----------------|
a|----------------|---------------1-|
e|--3-3--3-3--5-5-|--3-3--3-3-0-3---|

Coro

g|-----------------|---------------|
d|-----------------|---------------|
a|--5--5-5-5-----5-|--3-------8-7--|
e|-----------0-3---|-----1-1-------|

g|-----------------|---------------|
d|-----------------|---------------|
a|--5--5-5-5-----5-|--3-------8-7--|
e|-----------0-3---|-----1-1-------|

g|-----------------|--------------|
d|-----------------|--------------|
a|--5--5-5-5-----5-|--3-------8---|
e|-----------0-3---|-----1-1------|

Puente

g|----------------|-----------------|
d|----------------|-----------------|
a|----------------|---------------1-|
e|--0-0--0-0--3-3-|--0-0--0-0-0-3---|

se repite todo lo anterior con algunas modificaciones 
en el verso, despues viene este quiebre:
                                    X2
g|--------------|------------------|
d|----7-5-------|------------------|
a|--------5-7-5-|--3-3-5-5-----5-3-|
e|--5-----------|----------0-3-----|

g|--------------|---------------|-------------------|
d|----7-5-------|---------------|-------------------|
a|--------5-7-5-|--3-3-5-5--5-5-|-------------------|
e|--5-----------|---------------|--0-0--0-0--0-0--0-|

Debo estar seguro...
g|----------8-|-------8-------|--13------|
d|-----8-10---|--8-10---8-11--|-----11-9-|
a|--6---------|---------------|----------|
e|------------|---------------|----------|

Puente

g|----------------|-------------------|
d|----------------|-------------------|
a|----------------|---------------1-3-|
e|--3-3--3-3--5-5-|--3-3--3-3-0-3-----|

Coro

g|-----------------|---------------|
d|-----------------|---------------|
a|--5--5-5-5-----5-|--3-------8-7--|
e|-----------0-3---|-----1-1-------|

g|-----------------|---------------|
d|-----------------|---------------|
a|--5--5-5-5-----5-|--3-------8-7--|
e|-----------0-3---|-----1-1-------|

g|-----------------|--------------|
d|-----------------|--------------|
a|--5--5-5-5-----5-|--3-------8---|
e|-----------0-3---|-----1-1------|

Puente

g|----------------|-------------------|
d|----------------|-----------2-2-0---|
a|----------------|-----------------2-|
e|--0-0--0-0--3-3-|--0-0--0-0---------|

Se repite el coro y el puente y despues:

g|----------------|
d|----------------|
a|----7-5---------|
e|--0-----7-0-0-3-|

Final
  do# La  La# fa  La  Sol Fa  Mi
g|---|---|---|---|---|---|---|---|
d|---|---|---|---|---|---|---|---|
a|-4-|---|---|---|---|---|---|---|
e|---|-5-|-6-|-1-|-5-|-3-|-1-|-0-|


g|----6---------|-----------|------------------|---------------|
d|----------4-6-|---7-------|---8--------8-6---|---3-----3---5-|
a|--4---4-4-----|---------7-|----------8-----8-|---------------|
e|--------------|-5---5-5---|-6---6-6----------|-1---1-1---3---|

g|------------------|---------------|-----------|-------------|
d|----7-------7-5---|---5-----3-----|---3-----3-|-------2-----|
a|----------7-----7-|-----3-5---5-3-|-----------|---2-4---2-3-|
e|--5---5-5---------|-3-------------|-1---1-1---|-0-----------|

g|----6---------|-----------------|------------------|-------------|
d|----------4-6-|---7-------7-5---|---8--------8-6---|---3--3-2----|
a|--4---4-4-----|---------7-----7-|----------8-----8-|---------3-5-|
e|--------------|-5---5-5---------|-6---6-6----------|-1-----------|

g|------------------|---------------|-----------|-------------|
d|----7-------7-5---|---5-----3-----|---3-----3-|-------2-----|
a|----------7-----7-|-----3-5---5-3-|-----------|---2-4---2-3-|
e|--5---5-5---------|-3-------------|-1---1-1---|-0-----------|

Son 8 tiempos en total con distintas variaciones, aqui te doy
los 2 primeros, lo demás te lo dejo a capacidad de bajista...

bueno, ojala q disfruten este tab hecho con harta dedicación
por Alejandro Leiva.
Cualquier duda o consulta al mail: metjano@
VIVA CHILE MIERDA, Y LOS CHANCHO EN PIEDRA¡¡¡
Suggest correction
Creating personal tab
Creating personal tab
You can edit any tab online and save it as your Personal.

You can edit, replace or remove any tab part or add personal notes – all changes will be seen only by you.

Personal tabs can be accessed anytime from any device, even offline.
Learn more »
Give kudos to tab author, rate the tab!
1 2 3 4 5
comments
print report bad tab
guest
Wanna post a correction for this tab? Suggest correction