Oops, an error
Loading. Please wait.

Real Girls bass

118 views 1 this week
no commentswrite comment
1 2 3 4 5
3 more votes to show rating
add to favorites
×
Save as Personal and add changes to this tab that will be seen only by you. Learn more ›
×
You can save this tab as Personal to edit and correct it or add notes. All changes will be seen only by you. Learn more »
launch autoscroll
font size
0
reset
guitar tuner
edit
Autoscroll
slow
fast
+/-
esc
set tempo
stop
Author
Unregistered
-----------------------------------------------------
REAL GIRLS - Chantal Claret - The One, The Only...
-----------------------------------------------------
tabbed by: waycest
e-mail: frickmachine@gmail.com
tumblr: puppyiero
chantal claret: http://www.chantalclaret.com/
*i wrote two versions to this song, can be played either way!

Tuning: Standard

Version One:

[VERSE x4]
G|---------------|
D|---------------|
A|----5----5/6---|
E|---------------|

[PRE-CHORUS]
G|---------------|
D|---------------|
A|----6----6\4---|
E|---------------|

[CHORUS]
G|-----------------|
D|-----------------|
A|---5-5  6564-6---| x3
E|------------4----|

G|-----------------|
D|-----------------|
A|---55443322------|
E|-----------------|

G|-----------------|
D|-----------------|
A|---5-5  6564-6---| x3
E|------------4----|

G|-----------------|
D|-----------------|
A|---55443322------|
E|-----------------|


Version Two (played with 10's and 11's):

[VERSE x4] 
G|---------------|
D|---------------|
A|---------------|
E|---10---10/11--|

[PRE-CHORUS] 
G|----------------|
D|----------------|
A|----------------|
E|----11---11/9---|

[CHORUS] 
G|--------------------------|
D|--------------------------|
A|-------------------11-----|
E|----10-10---1110119--11---| x3

G|--------------------------|
D|--------------------------|
A|--------------------------|
E|-------1010998877---------|

G|--------------------------|
D|--------------------------|
A|-------------------11-----|
E|----10-10---1110119--11---| x3

G|--------------------------|
D|--------------------------|
A|--------------------------|
E|-------1010998877---------|



| /  slide up
| \  slide down
| h  hammer-on
| p  pull-off
| ~  vibrato
| +  harmonic
| x  Mute note
============================
Suggest correction
Creating personal tab
Creating personal tab
You can edit any tab online and save it as your Personal.

You can edit, replace or remove any tab part or add personal notes – all changes will be seen only by you.

Personal tabs can be accessed anytime from any device, even offline.
Learn more »
Give kudos to tab author, rate the tab!
1 2 3 4 5
comments
print report bad tab
guest
Wanna post a correction for this tab? Suggest correction