Oops, an error
Loading. Please wait.

Pipeline bass

version 1
version 1

Whole song

Interactive

3,560 views 12 this week
no commentswrite comment
1 2 3 4 5
x 4
add to favorites
×
Save as Personal and add changes to this tab that will be seen only by you. Learn more ›
×
You can save this tab as Personal to edit and correct it or add notes. All changes will be seen only by you. Learn more »
launch autoscroll
font size
0
reset
guitar tuner
edit
Autoscroll
slow
fast
+/-
esc
set tempo
stop
Author
Pipeline
The Chantays
Written by Brian Carman and Bob Spickard; released as a single with "Move It" 
as the B-side.

Intro:
G|------- ------- ------- -------|------- ------- ------- -------|
D|-------------------------------|-------------------------------|
A|-------------------------------|-------------------------------|
E|-------------------------------|-------------------------------|



G|------- ------- ------- -------|------- ------- ------- -------|
D|-------------------------------|-------------------------------|
A|-------------------------------|-------------------------------|
E|-------------------------------|-------------------------------|



G|------- ------- ------- -------|------- ------- ------- -------|
D|--------5---------------5------|--------5---------------5------|
A|7---------------7--------------|7---------------7--------------|
E|-------------------------------|-------------------------------|



G|------- ------- ------- -------|------- ------- ------- -------|
D|--------5---------------5------|--------5---------------5------|
A|7---------------7--------------|7---------------7--------------|
E|-------------------------------|-------------------------------|



G|------- ------- ------- -------|------- ------- ------- -------|
D|--------5---------------5------|--------5---------------5------|
A|7---------------7--------------|7---------------7--------------|
E|-------------------------------|-------------------------------|


Verse:
G|------- ------- ------- -------|------- ------- ------- -------|
D|--------5---------------5------|--------5---------------5------|
A|7---------------7--------------|7---------------7--------------|
E|-------------------------------|-------------------------------|



G|------- ------- ------- -------|------- ------- ------- -------|
D|--------5---------------5------|--------5---------------5------|
A|7---------------7--------------|7---------------7--------------|
E|-------------------------------|-------------------------------|



G|------- 5------ ------- 5------|------- 5------ ------- 5------|
D|7---------------7--------------|7---------------7--------------|
A|-------------------------------|-------------------------------|
E|-------------------------------|-------------------------------|



G|------- 5------ ------- 5------|------- 5------ ------- 5------|
D|7---------------7--------------|7---------------7--------------|
A|-------------------------------|-------------------------------|
E|-------------------------------|-------------------------------|



G|------- 8------ ------- 8------|------- 9------ ------- 9------|
D|9---------------9--------------|10--------------10-------------|
A|-------------------------------|-------------------------------|
E|-------------------------------|-------------------------------|



G|------- 8------ ------- 8------|------- 9------ ------- 9------|
D|9---------------9--------------|10--------------10-------------|
A|-------------------------------|-------------------------------|
E|-------------------------------|-------------------------------|



G|------- 8------ ------- 8------|------- 8------ ------- 8------|
D|9---------------9--------------|9---------------9--------------|
A|-------------------------------|-------------------------------|
E|-------------------------------|-------------------------------|



G|------- ------- ------- -------|------- ------- ------- -------|
D|6-/-7---7---7---6-/-7---7---7--|-------------------------------|
A|-------------------------------|-------------------------------|
E|-------------------------------|-------------------------------|



G|------- ------- ------- -------|------- ------- ------- -------|
D|-------------------------------|--------5---------------5------|
A|-------------------------------|7---------------7--------------|
E|-------------------------------|-------------------------------|



G|------- ------- ------- -------|------- ------- ------- -------|
D|--------5---------------5------|--------5---------------5------|
A|7---------------7--------------|7---------------7--------------|
E|-------------------------------|-------------------------------|



G|------- ------- ------- -------|------- ------- ------- -------|
D|--------5---------------5------|--------5---------------5------|
A|7---------------7--------------|7---------------7--------------|
E|-------------------------------|-------------------------------|


Verse:
G|------- ------- ------- -------|------- ------- ------- -------|
D|--------5---------------5------|--------5---------------5------|
A|7---------------7--------------|7---------------7--------------|
E|-------------------------------|-------------------------------|



G|------- ------- ------- -------|------- ------- ------- -------|
D|--------5---------------5------|--------5---------------5------|
A|7---------------7--------------|7---------------7--------------|
E|-------------------------------|-------------------------------|



G|------- 5------ ------- 5------|------- 5------ ------- 5------|
D|7---------------7--------------|7---------------7--------------|
A|-------------------------------|-------------------------------|
E|-------------------------------|-------------------------------|



G|------- 5------ ------- 5------|------- 5------ ------- 5------|
D|7---------------7--------------|7---------------7--------------|
A|-------------------------------|-------------------------------|
E|-------------------------------|-------------------------------|



G|------- 8------ ------- 8------|------- 9------ ------- 9------|
D|9---------------9--------------|10--------------10-------------|
A|-------------------------------|-------------------------------|
E|-------------------------------|-------------------------------|



G|------- 8------ ------- 8------|------- 9------ ------- 9------|
D|9---------------9--------------|10--------------10-------------|
A|-------------------------------|-------------------------------|
E|-------------------------------|-------------------------------|



G|------- 8------ ------- 8------|------- 8------ ------- 8------|
D|9---------------9--------------|9---------------9--------------|
A|-------------------------------|-------------------------------|
E|-------------------------------|-------------------------------|



G|------- ------- ------- -------|------- ------- ------- -------|
D|6-/-7---7---7---6-/-7---7---7--|6-/-7---7---6-/-7---7---7---7--|
A|-------------------------------|-------------------------------|
E|-------------------------------|-------------------------------|


Bridge:
G|------- ------- ------- -------|------- ------- ------- -------|
D|5-------5---5---4-/-5---5------|4-/-5---5---4-/-5---5---5---5--|
A|-------------------------------|-------------------------------|
E|-------------------------------|-------------------------------|



G|------- ------- ------- -------|------- ------- ------- -------|
D|2-/-3---3---3---2-/-3---3---3--|2-/-3---3---2-/-3---3---3---3--|
A|-------------------------------|-------------------------------|
E|-------------------------------|-------------------------------|



G|------- ------- ------- -------|------- ------- ------- -------|
D|5-------5---5---4-/-5---5---5--|4-/-5---5---4-/-5---5---5---5--|
A|-------------------------------|-------------------------------|
E|-------------------------------|-------------------------------|



G|------- ------- ------- -------|------- ------- ------- -------|
D|6-/-7---7---7---6-/-7---7---7--|6-/-7-------6-/-7---7---7---7--|
A|-------------------------------|-------------------------------|
E|-------------------------------|-------------------------------|



G|------- ------- ------- -------|------- ------- ------- -------|
D|5-------5---5---4-/-5---5---5--|4-/-5---5---4-/-5---5---5---5--|
A|-------------------------------|-------------------------------|
E|-------------------------------|-------------------------------|



G|------- ------- ------- -------|------- ------- ------- -------|
D|3-------3---3---2-/-3---3---3--|2-/-3---3---2-/-3---3---3---3--|
A|-------------------------------|-------------------------------|
E|-------------------------------|-------------------------------|



G|------- ------- ------- -------|------- ------- ------- -------|
D|2-------2---2---2-------2---2--|2------------------------------|
A|-------------------------------|-------------------------------|
E|-------------------------------|-------------------------------|



G|------- ------- ------- -------|------- ------- ------- -------|
D|-------------------------------|--------5---------------5------|
A|-------------------------------|7---------------7--------------|
E|-------------------------------|-------------------------------|



G|------- ------- ------- -------|------- ------- ------- -------|
D|--------5---------------5------|--------5---------------5------|
A|7---------------7--------------|7---------------7--------------|
E|-------------------------------|-------------------------------|



G|------- ------- ------- -------|------- ------- ------- -------|
D|--------5---------------5------|--------5---------------5------|
A|7---------------7--------------|7---------------7--------------|
E|-------------------------------|-------------------------------|


Verse:
G|------- ------- ------- -------|------- ------- ------- -------|
D|--------5---------------5------|--------5---------------5------|
A|7---------------7--------------|7---------------7--------------|
E|-------------------------------|-------------------------------|



G|------- ------- ------- -------|------- ------- ------- -------|
D|--------5---------------5------|--------5---------------5------|
A|7---------------7--------------|7---------------7--------------|
E|-------------------------------|-------------------------------|



G|------- 5------ ------- 5------|------- 5------ ------- 5------|
D|7---------------7--------------|7---------------7--------------|
A|-------------------------------|-------------------------------|
E|-------------------------------|-------------------------------|



G|------- 5------ ------- 5------|------- 5------ ------- 5------|
D|7---------------7--------------|7---------------7--------------|
A|-------------------------------|-------------------------------|
E|-------------------------------|-------------------------------|



G|------- 8------ ------- 8------|------- 9------ ------- 9------|
D|9---------------9--------------|10--------------10-------------|
A|-------------------------------|-------------------------------|
E|-------------------------------|-------------------------------|



G|------- 8------ ------- 8------|------- 9------ ------- 9------|
D|9---------------9--------------|10--------------10-------------|
A|-------------------------------|-------------------------------|
E|-------------------------------|-------------------------------|



G|------- 8------ ------- 8------|------- 8------ ------- 8------|
D|9---------------9--------------|9---------------9--------------|
A|-------------------------------|-------------------------------|
E|-------------------------------|-------------------------------|



G|------- ------- ------- -------|------- ------- ------- -------|
D|6-/-7---7---7---6-/-7---7---7--|6-/-7--------------------------|
A|-------------------------------|-------------------------------|
E|-------------------------------|-------------------------------|



G|------- ------- ------- -------|------- ------- ------- -------|
D|-------------------------------|-------------------------------|
A|7------------------------------|-------------------------------|
E|-------------------------------|-------------------------------|

Please e-mail me for any corrections, or write a comment.

            
            
Suggest correction
Creating personal tab
Creating personal tab
You can edit any tab online and save it as your Personal.

You can edit, replace or remove any tab part or add personal notes – all changes will be seen only by you.

Personal tabs can be accessed anytime from any device, even offline.
Learn more »
comments
print report bad tab
guest
You may want to rate the tab now too:
select rating
Wanna post a correction for this tab? Suggest correction