Oops, an error
Loading. Please wait.

Pipeline Tab

version 1
version 1

Whole song

Interactive

20,981 views 78 this week
2 commentsread comments
1 2 3 4 5
x 8
add to favorites
launch autoscroll
font size
0
reset
how to read this tab
guitar tuner
×
Best way to learn
"Pipeline"
Autoscroll
slow
fast
+/-
esc
set tempo
stop
RIFF A:
e---------------------------------------|
B---------------------------------------|
G---------------------------------------|
D---------------------------------------|
A---------------------------------------|
E--12\\\2-------------------------------|

Riff B:
e|---------------------------------|
B|---------------------------------|
G|---------------------------------|
D|--2--2--2--2--2--2--2------------|
A|-o--3--0--3--0--3--0-------------|
E|---------------------------------|
 |
 |
e|---------------------------------|
B|---------------------------------|
G|---------------------------------|
D|--2--2--2--2--2--2--2------------|
A|-o--3--0--3--0--3--0-------------|
E|---------------------------------|

Riff C:

|----------------------------------------------------|
|----------------------------------------------------|
|----------------------------------------------------|
|----0-2-0-2-4-2-0-2-4-2-4-2-0-2-0-------------------|
|--2-------------------------------2-----------------|
|----------------------------------------------------|
|
|
|----------------------------------------------------|
|----------------------------------------------------|
|----------------------------------------------------|
|-------------------------------------0-4-2-0--------|
|---------------------------------------------2------|
|----------------------------------------------------|


|----------------------------------------------------|
|----------------------------------------------------|
|----0-2-0-2-4-2-0-2-4-2-4-2-0-2-0-------------------|
|--2-------------------------------2-----------------|
|----------------------------------------------------|
|----------------------------------------------------|
|
|
|----------------------------------------------------|
|----------------------------------------------------|
|-------------------------------------0-4-2-0--------|
|---------------------------------------------2------|
|----------------------------------------------------|
|----------------------------------------------------|

Riff D:
|---------------------------------------------------------|
|---------------------------------------------------------|
|---------------------------------------------------------|
|---------------------------------------------------------|
|--2-2-2--2-2-2--3-3-3--3-3-3--2-2-2--2-2-2--3-3-3--3-3-3-|
|---------------------------------------------------------|
|
|
|-------------------------------------------------------|
|-------------------------------------------------------|
|-------------------------------------------------------|
|-------------------------------------------------------|
|--2-0-2-0-2-0-2-0-2--4-4-4-4-4-4-----------------------|
|-------------------------------------------------------|

RIFF E:
e---------------------------------------|
B---------------------------------------|
G---------------------------------------|
D---------------------------------------|
A---------------------------------------|
E--12\\\2-------------------------------|

Riff F:
e|---------------------------------|
B|---------------------------------|
G|---------------------------------|
D|--2--2--2--2--2--2--2------------|
A|-o--3--0--3--0--3--0-------------|
E|---------------------------------|
 |
 |
e|---------------------------------|
B|---------------------------------|
G|---------------------------------|
D|--2--2--2--2--2--2--2------------|
A|-o--3--0--3--0--3--0-------------|
E|---------------------------------|

Riff G:

|----------------------------------------------------|
|----------------------------------------------------|
|----------------------------------------------------|
|----0-2-0-2-4-2-0-2-4-2-4-2-0-2-0-------------------|
|--2-------------------------------2-----------------|
|----------------------------------------------------|
|
|
|----------------------------------------------------|
|----------------------------------------------------|
|----------------------------------------------------|
|-------------------------------------0-4-2-0--------|
|---------------------------------------------2------|
|----------------------------------------------------|


|----------------------------------------------------|
|----------------------------------------------------|
|----0-2-0-2-4-2-0-2-4-2-4-2-0-2-0-------------------|
|--2-------------------------------2-----------------|
|----------------------------------------------------|
|----------------------------------------------------|
|
|
|----------------------------------------------------|
|----------------------------------------------------|
|-------------------------------------0-4-2-0--------|
|---------------------------------------------2------|
|----------------------------------------------------|
|----------------------------------------------------|

Riff H:
|---------------------------------------------------------|
|---------------------------------------------------------|
|---------------------------------------------------------|
|---------------------------------------------------------|
|--2-2-2--2-2-2--3-3-3--3-3-3--2-2-2--2-2-2--3-3-3--3-3-3-|
|---------------------------------------------------------|
|
|
|-------------------------------------------------------|
|-------------------------------------------------------|
|-------------------------------------------------------|
|-------------------------------------------------------|
|--2-0-2-0-2-0-2-0-2------------------------------------|
|-------------------------------------------------------|


Riff I:
|-----------------------------------------------------------------------|
|-----------------------------------------------------------------------|
|-----------------------------------------------------------------------|
|-----------2-0------------0--------------------------------0-----------|
|--3-0-0--3-----3-2------2---3-2-0------0-3-2-0---2-------2---3-2-------|
|-------------------3-3------------1-1---------------3-3------------1-1-|
|
|
|---------------------------------------------------------------------|
|---------------------------------------------------------------------|
|---------------------------------------------------------------------|
|---------------------------------------------------------------------|
|--0-3-2-0---2--------------------------------------------------------|
|---------------------------------------------------------------------|

RIFF J:
e---------------------------------------|
B---------------------------------------|
G---------------------------------------|
D---------------------------------------|
A---------------------------------------|
E--12\\\2-------------------------------|

Riff K:
e|---------------------------------|
B|---------------------------------|
G|---------------------------------|
D|--2--2--2--2--2--2--2------------|
A|-o--3--0--3--0--3--0-------------|
E|---------------------------------|
 |
 |
e|---------------------------------|
B|---------------------------------|
G|---------------------------------|
D|--2--2--2--2--2--2--2------------|
A|-o--3--0--3--0--3--0-------------|
E|---------------------------------|

Riff L:

|----------------------------------------------------|
|----------------------------------------------------|
|----------------------------------------------------|
|----0-2-0-2-4-2-0-2-4-2-4-2-0-2-0-------------------|
|--2-------------------------------2-----------------|
|----------------------------------------------------|
|
|
|----------------------------------------------------|
|----------------------------------------------------|
|----------------------------------------------------|
|-------------------------------------0-4-2-0--------|
|---------------------------------------------2------|
|----------------------------------------------------|


|----------------------------------------------------|
|----------------------------------------------------|
|----0-2-0-2-4-2-0-2-4-2-4-2-0-2-0-------------------|
|--2-------------------------------2-----------------|
|----------------------------------------------------|
|----------------------------------------------------|
|
|
|----------------------------------------------------|
|----------------------------------------------------|
|-------------------------------------0-4-2-0--------|
|---------------------------------------------2------|
|----------------------------------------------------|
|----------------------------------------------------|

Riff M:
|---------------------------------------------------------|
|---------------------------------------------------------|
|---------------------------------------------------------|
|---------------------------------------------------------|
|--2-2-2--2-2-2--3-3-3--3-3-3--2-2-2--2-2-2--3-3-3--3-3-3-|
|---------------------------------------------------------|
|
|
|-------------------------------------------------------|
|-------------------------------------------------------|
|-------------------------------------------------------|
|-------------------------------------------------------|
|--2-0-2-0-2-0-2-0-2--4-4-4-4-4-4-----------------------|
|-------------------------------------------------------|

RIFF N:
e---------------------------------------|
B---------------------------------------|
G---------------------------------------|
D---------------------------------------|
A---------------------------------------|
E--12\\\2-------------------------------|

e--------3------------------------------|
B--------3------------------------------|
G------3-3------------------------------|
D----3----------------------------------|
A--2------------------------------------|
E---------------------------------------|
Suggest correction
comments
print report bad tab
2 comments total.
+4 reply
Roke_0 85 Mar 06, 2011 11:10 PM

Horrible. Just ****ing horrible man.

guest
You may want to rate the tab now too:
select rating
Wanna post a correction for this tab? Suggest correction