Oops, an error
Loading. Please wait.

Stay With Me tab

version 1
version 1

Whole song

  • I noticed that the other tab didn't have the melod... Show more
  • Full fingerstyle arrangement by Andrew Foy.
2,323 views 153 this week
3 commentsread comments
1 2 3 4 5
2 more votes to show rating
add to favorites
×
Save as Personal and add changes to this tab that will be seen only by you. Learn more ›
×
You can save this tab as Personal to edit and correct it or add notes. All changes will be seen only by you. Learn more »
launch autoscroll
font size
0
reset
how to read this tab
guitar tuner
edit
Autoscroll
slow
fast
+/-
esc
set tempo
stop
About this tab version
I noticed that the other tab didn't have the melody and I found a great video on youtube that had it so I wrote it out and here it is. Was this info helpful? Yes No
Strum Pattern
Cm D D U Mute U D
G# U D D U Mute U D U
D# D D U Mute U D
A# U D D U Mute U D U

[Main riff]
e|---------8--8--10--6--6-----6--6-------|
B|4--4--8------------------8--------6----|
G|---------------------------------------|
D|---------6--6---8----------------------|  (x2)
A|3--3--6------------6--6--6--5--5--5----|
E|---------------------------------------|

[Melody]
e|---------------------------------------------------------|
B|4/6-6/8--8-8--8-9--8h9--9/11--11-11--9p8----4/6-6/8--8-8-|
G|-----------------------------------------10--------------|
D|---------------------------------------------------------|
A|---------------------------------------------------------|
E|---------------------------------------------------------|

e|---------11-10--11-11-11--8------11-10---------8-8h10-8-------|
B|9/11\9-9-------------------11-8--------8--8h11----------11-11-|
G|--------------------------------------------------------------|
D|--------------------------------------------------------------|
A|--------------------------------------------------------------|
E|--------------------------------------------------------------|

e|-------------11-10---------8-8h10-8--------------------|
B|11/13\11--8--------8--8h11----------11-11--8-----------|
G|---------------------------------------------10--8-7\5-|
D|-------------------------------------------------------|
A|-------------------------------------------------------|
E|-------------------------------------------------------|

************************************

| h  Hammer-on
| p  Pull-off
| /  Slide up
| \  Slide down
 

************************************

            
            
Suggest correction
Creating personal tab
Creating personal tab
You can edit any tab online and save it as your Personal.

You can edit, replace or remove any tab part or add personal notes – all changes will be seen only by you.

Personal tabs can be accessed anytime from any device, even offline.
Learn more »
Give kudos to tab author, rate the tab!
1 2 3 4 5
comments
print report bad tab
3 comments total.
0 reply
eliselamof2 10 Jul 01, 2017 01:59 PM

How do you play the second line of the melody? I can't get the timing of the 3 11-fretted e notes

0 reply
Roki123 22 Jul 14, 2017 09:20 PM

Sorry my bad the 3 11-fretted e notes should be played on the B string not the e string. Hope you enjoy the tab keep playing hard and God bless.

0 reply
Roki123 22 Aug 22, 2017 04:17 PM

e|---------11-10------------8-------11-10--
B|9/11\9-9--------11-11-11----11--8-------8
G|-----------------------------------------
D|-----------------------------------------
A|-----------------------------------------
E|-----------------------------------------

guest
Wanna post a correction for this tab? Suggest correction