Oops, an error
Loading. Please wait.

Stay With Me tab

version 2
version 2

Whole song

  • I noticed that the other tab didn't have the melod... Show more
  • Full fingerstyle arrangement by Andrew Foy.
1,108 views 69 this week
3 commentsread comments
1 2 3 4 5
1 last vote to show rating
add to favorites
×
Save as Personal and add changes to this tab that will be seen only by you. Learn more ›
×
You can save this tab as Personal to edit and correct it or add notes. All changes will be seen only by you. Learn more »
launch autoscroll
font size
0
reset
how to read this tab
guitar tuner
edit
Autoscroll
slow
fast
+/-
esc
set tempo
stop
About this tab version
Full fingerstyle arrangement by Andrew Foy. Was this info helpful? Yes No
https://www.youtube.com/watch?v=tRdOCIOJMkw

[Intro]
e|---------------------------------------------------------------------------|
B|-1-1-5/10--10-10-12\8-8-8-5-8-8-----1-----1------5/10-10-----10------12\8--|
G|--------------------------------7\-----------------------------------------|
D|---------------------------------------------------------------------------|
A|-0-0-0-----8--8---------------------0-0-0-0-0-0--0-0--8--8-8-8--8-8--8-8---|
E|----------------------8-8-8-7-7--------------------------------------------|

e|---------------------------------------------------------------------------|
B|-8-----8-----5-------------------------------------------------------------|
G|-----------------7---------------------------------------------------------|
D|---------------------------------------------------------------------------|
A|---------------------------------------------------------------------------|
E|-8-8-8-8-8-8-8-8-7---------------------------------------------------------|

[Chorus]
e|---------------------------------------------------------------------------|
B|------5-5-5-----5--6-------5-5-6--8-8-8--6-5-------------------5-5-5----8--|
G|-5-7--5---5-----5--5-------5----------0-------7---------5-5-7--5---5----5--|
D|------5------5-----7---7---7----------0------------0------5----5---5-5-----|
A|------0---0-----0----8---8---8----------------------------7----0---0-------|
E|----------------------------------8---8----8-----7---7---------------------|

e|-----------7/8-7------------------5------------------8--------------5-5h7--|
B|-6----------------------8-8-8-------8---------5-5-8--5--5-5-----5-8--------|
G|-5----------------------0---0-------0----------------5---------------------|
D|-7----7------------(0)--0---0--0---------0-------------------5-------------|
A|----8---8--------------------------------------------0----0-----0---8------|
E|------------------------8---8----------7---7----8--------------------------|

e|----5-------------5--------------------8-----------5-5h7---5---------------|
B|-------8-8-----------8----------5-5-8--5-5-5---5-8------------8-8----------|
G|---------------------------0------0----5-----------------------------------|
D|----------------0----------------------------5-----------------------0-----|
A|-8-----8-------------------------------0---0---0---8-----8----8------------|
E|------------8-8---8------7---7----7-------------------------------8-----8--|

e|---------------------------------------------------------------------------|
B|---5-----------------------------------------------------------------------|
G|---0--7-------5-4-4h5p4----------------------------------------------------|
D|-0----0-0----------------7-------------------------------------------------|
A|-----------------------------x---------------------------------------------|
E|---8--7----7-----------------x---------------------------------------------|

[Verse]
e|---------------------------------------------------------------------------|
B|---------------------------------------------------------------------------|
G|---------------------------------------------------------------------------|
D|---------------------------------------------------------------------------|
A|-0-3-3-3-3-3-3-0--x--0--3-3-3-3-5-3-0--x--0-3-3-3-3/5-7-5-3-5-3--2--x------|
E|---5-------5------x-----1-------1------x----8-------8-----x---7--7--x------|

e|---------------------------------------------------------------------------|
B|---------------------------------------------------------------------------|
G|---------------------------------------------------------------------------|
D|---------------------------------------------------------------------------|
A|-0-3-3-3-3-3-3-0--x--0--3-3-3-3-5-3-0--x--0-3-3-3-3/5-7-5-3-5-3--2---------|
E|---5-------5------x-----1-------1------x----8-------8-----x---7--7---------|

e|---------------------------------------------------------------------------|
B|---------------------------------------------------------------------------|
G|----------<12>----------------0-------------0------------------------------|
D|--<14>--------------------2-3---3---2-0----------3-2-0---------------------|
A|---0---0--------0-<15>------------3---3-3-x----2---2----x------------------|
E|-------------------1---1------------------x-------------x------------------|

e|---------------------------------------------------------------------------|
B|---------------------------------------------------------------------------|
G|----------<12>----------------0-------------0------------------------------|
D|--<14>--------------------2-3---3---2-0------------------------------------|
A|---0---0--------0-<15>------------3---3-3-x---0----------------------------|
E|-------------------1---1------------------x--------------------------------|

[Chorus]
e|---------------------------------------------------------------------------|
B|------5-5-5-----5---6---------5---5-6--8-8-8---6-5------------------5-5-5--|
G|-5-7--5---5-----5---5---------5------------0-------7-----------5-7--5---5--|
D|------5-------------7---7-----7------------0-----------0------------5---5--|
A|------0---0--x--0-x---8---8-x---x-8----------x-------------x--------0---0-x|
E|-------------x----x---------x---x------8---8-x-------7---7-x-7------------x|

e|---------------7/8-7----------------5------------------8-------------5-5h7-|
B|-8---6--------------------8-8-8-------8-----------5-8--5--5-5----5-8-------|
G|-5---5--------------------0---0-------0----------------5-------------------|
D|-----7----7----------(0)--0---0-----------0--------------------5-----------|
A|---x----8---8--x-----------------x------------x--------0----0-x--0---8-----|
E|---x-----------x----------8---8--x------7---7-x-7-------------x------------|

e|----5--------------5-------------------8-----------5-5h7---5---------------|
B|-------8-8-----------8------------5-8--5-5-5---5-8------------8-8----------|
G|--------------------------0------------5-----------------------------------|
D|------------0---------------------------------5----------------------0-----|
A|-8--x--8--------x-------------x--------0---0-x-0---8-----8----8------------|
E|----x-----8---8-x-8-----7---7-x--------------x--------------------8-----8--|

e|---------------------------------------------------------------------------|
B|---5-----------------------------------------------------------------------|
G|---0--7-------5-4-4h5p4----------------------------------------------------|
D|-0----0-0------------------------------------------------------------------|
A|---------------------------------------------------------------------------|
E|---8--7----7---------------------------------------------------------------|

e|----------------7/8----7----5----------------------------------------------|
B|----5---(5)-----------------------8--8---8--------5------------------------|
G|----5---(5)-----------------------0--0---0--------0--7-----5-4-4h5p4-------|
D|-7--5---(5)----------------------------0-------------0---------------------|
A|-0----0--x---0-------8---8--x--8------------x--------------x---------------|
E|---------x------------------x--------8---8--x--8-----7--7--x---------------|

e|----------------7/8----7----5----------------------------------------------|
B|----5---(5)-----------------------8--8---8--------5------------------------|
G|----5---(5)-----------------------0--0---0--------0--7-----5-4-4h5p4-------|
D|-7--5---(5)----------------------------0-------------0----------------7----|
A|-0----0--x---0-------8---8--x--8------------x------------------------------|
E|---------x------------------x--------8---8--x--8-----7--7------------------|


************************************

| x   Dead note
| (n) Ghost note
| h   Hammer-on
| p   Pull-off
| /   Slide up
| \   Slide down
|<->  Harmonic

************************************

            
            
Suggest correction
Creating personal tab
Creating personal tab
You can edit any tab online and save it as your Personal.

You can edit, replace or remove any tab part or add personal notes – all changes will be seen only by you.

Personal tabs can be accessed anytime from any device, even offline.
Learn more »
Give kudos to tab author, rate the tab!
1 2 3 4 5
comments
print report bad tab
3 comments total.
+1 reply
pauljamesmacute 10 Jun 25, 2017 08:44 AM

Excellent! I hope there will be a Treat You Better arrangement 😔

+1 reply
rodger0531 10 Aug 24, 2017 02:19 PM

This is pretty accurate, good work!

guest
You may want to rate the tab now too:
select rating
Wanna post a correction for this tab? Suggest correction