Oops, an error
Loading. Please wait.

Do You Feel It bass

1,102 views 27 this week
no commentswrite comment
1 2 3 4 5
2 more votes to show rating
add to favorites
×
Save as Personal and add changes to this tab that will be seen only by you. Learn more ›
×
You can save this tab as Personal to edit and correct it or add notes. All changes will be seen only by you. Learn more »
launch autoscroll
font size
0
reset
guitar tuner
edit
Autoscroll
slow
fast
+/-
esc
set tempo
stop
Chaos Chaos - Do You Feel It?

Tabbed by: Ashy (XxThreeCheersxX) 
E-mail: burdickash@gmail.com

Tuning: Standard

Yes, this is the song that plays during the imfamous scene in season 2, episode 3, of rick and morty.

Happy playing!

Come in at 0:28
G|------------------------------------------------|
D|------------------------------------------------|
A|----------3~----------------3----5--------------| x 2
E|-5~-----------------------------------1~--------|

"Are you afraid of me now?"

Chorus x 5
G|---------------------------------------|
D|---------------------------------------|
A|-3~------------------------------------|
E|-------------------1~--------5~--------|

Verse II
G|------------------------------------------------|
D|------------------------------------------------|
A|----------3~------------------------------------| 
E|--------------------------------------1~--------|

G|------------------------------------------------|
D|------------------------------------------------|
A|----------3~------------------------------------| 
E|-5~-----------------------------------1~--------|

G|------------------------------------------------|
D|------------------------------------------------|
A|----------3~----------------3----5--------------| x 2
E|-5~-----------------------------------1~--------|

"Run away with me now"
G|--------------------|
D|--------------------|
A|--------------------|
E|-5~-----------3~----|

Chorus x 4

Bridge/Verse III
G|------------------------------------------------|
D|------------------------------------------------|
A|----------3~------------------------------------| x 2
E|--------------------------------------1~--------|

G|------------------------------------------------|
D|------------------------------------------------|
A|----------3~----------------3----5--------------| x 2
E|-5~-----------------------------------1~--------|

"The kind that makes us young"

Chorus x until it fades out


| /  slide up
| \  slide down
| h  hammer-on
| p  pull-off
| ~  vibrato
| +  harmonic
| x  Mute note
===============================================================================
Suggest correction
Creating personal tab
Creating personal tab
You can edit any tab online and save it as your Personal.

You can edit, replace or remove any tab part or add personal notes – all changes will be seen only by you.

Personal tabs can be accessed anytime from any device, even offline.
Learn more »
Give kudos to tab author, rate the tab!
1 2 3 4 5
comments
print report bad tab
guest
You may want to rate the tab now too:
select rating
Wanna post a correction for this tab? Suggest correction