Oops, an error
Loading. Please wait.

Killing Myself To Sleep chords

by Charice
19 views 1 this week
no commentswrite comment
1 2 3 4 5
3 more votes to show rating
add to favorites
×
Save as Personal and add changes to this tab that will be seen only by you. Learn more ›
×
You can save this tab as Personal to edit and correct it or add notes. All changes will be seen only by you. Learn more »
launch autoscroll
font size
0
reset
transpose
0
reset
display chords
guitar tuner
edit
Autoscroll
slow
fast
+/-
esc
set tempo
stop
About this tab version
Charice is now known as Jake Zyrus. Was this info helpful? Yes No
Strumming
There is no strumming pattern for this song yet. and get +5 IQ
[S/he used BAR CHORDS all throughout the song]

[Intro]

Cm  G#  F  (2x)
C  G#m  Fm (2x) pause


                          Cm
I've been thinking about you
            G#                      F
I've had too much liquor to forget you
                  Cm
It helped me to relax,
      G#                    F     Cm break
but it didn't help me to forget you

            Cm
  What's in you?
G#              F      E# D# C
  You make me go crazy
                Cm         F               Cm
  Crazy that I'm willing to die for you, baby
G#           F  E# D# C
  You don't care
      G#           F break
  But you don't care

         Cm
  Here I am
            G#       F
  Killing myself to sleep
         Cm
  Here I am
  G#        F
  Killing myself to sleep

       C     G#m
I wake up, alive
       Fm
Without you by my side
       C
Here I am
G#m                Fm
Killing myself to sleep

[Interlude]

e|------------------------------|---------------------------|
B|------------------------------|---------------------------|
G|------------------------------|---------------------------|
D|------------------------------|------------------5/8--3~--|
A|-------3--5--5/6--5--3--------|-------3--5--5/6-----------|
E|--12\------------------3--1~--|--12\----------------------|

            Cm
  What's in you?
G#              F      E# D# C
  You make me go crazy
                Cm         F               Cm
  Crazy that I'm willing to die for you, baby
G#           F  E# D# C
  You don't care Yeah yeah ahh
      G#           F
  But you don't care Woahhh

         Cm
  Here I am
            G#       F
  Killing myself to sleep
         Cm
  Here I am
  G#        F
  Killing myself to sleep

       C     G#m
I wake up, alive
       Fm
Without you by my side
       C
Here I am
G#m           Fm
Killing myself

[Solo]

e|---------------------------------3--4--6--8--11----|--11--10--8-(4x)--11-10-8-(4x)--11-10-8/13--13-13/15~-|
B|------------------------------------4--6--8--11----|------------------------------------------------------|
G|--5~--/8--/3-----------5\3-1--3--4-----------------|------------------------------------------------------|
D|--------------3--5-5/6-----------------------------|------------------------------------------------------|
A|---------------------------------------------------|------------------------------------------------------|
E|---------------------------------------------------|------------------------------------------------------|

         Cm
  Here I am
  G#        F
  Killing myself to sleep

       C     G#m
I wake up, alive
       Fm
Without you by my side
       C
Here I am
G#m           Fm F
Killing myself

            
            
Suggest correction
Creating personal tab
Creating personal tab
You can edit any tab online and save it as your Personal.

You can edit, replace or remove any tab part or add personal notes – all changes will be seen only by you.

Personal tabs can be accessed anytime from any device, even offline.
Learn more »
Give kudos to tab author, rate the tab!
1 2 3 4 5
comments
print report bad tab
guest
You may want to rate the tab now too:
select rating
Wanna post a correction for this tab? Suggest correction