Oops, an error
Loading. Please wait.

Louder Chords

version 1
version 1

Whole song

50,605 views 15 this week
1 commentread comment
1 2 3 4 5
please rate
add to favorites
launch autoscroll
font size
0
reset
transpose
0
reset
simplify chords
display chords
guitar tuner
Autoscroll
slow
fast
+/-
esc
set tempo
stop
Help us to improve Ultimate-Guitar.com Take our survey!
×
Author
Difficulty
novice
    
   This is my very first tab, comments are welcomed, Enjoy! :)


    G : 320033
Cadd9 : x30013
    C : x32033
  G/B : x20003
    D : xx0232
   D' : xx0233
   Em : 022033



Louder (x4)
             
  G               Cadd9         G/B
e|-3---3---3---3--3---3---3---3--3---3---3---3----|
G|---3---3---3------1---1---1------0---0---0---0--|
D|------------------------------------------------|
A|--------------2-3------------3-2----------------|
E|-3----------------------------------------------|

I'm staring out of my window

 Cadd9             G
e|-3---3---3---3---3---3---3---3----|
G|---1---1---1---1---3---3---3---3--|
D|----------------------------------|
A|-3--------------------------------|
E|-----------------3----------------|

And the rain is pouring down

  Cadd9           G/B
e|-3---3---3---3--3---3---3---3----|
G|---1---1---1------0---0---0---0--|
D|---------------------------------|
A|-3------------3-2----------------|
E|---------------------------------|

When you left, I was so low

  Cadd9
e|-3---3---3---3---|
G|---1---1---1---1-|
D|-----------------|
A|-3---------------|
E|-----------------|
                       
But I'm not gonna drown

G (strum, palm mute)
I don't need no shoulder
C
I'm gonna be a soldier
G                  Em          C           D
I just wanna feel somethin' I don't understand

Chorus:
                C                     D'
I'm just gonna run right through the rain
                Em                      D'
I'm just gonna dance right through the pain
                C                G
I'm just gonna feel that rhythm feel that drum
         D'
Let my heart beat louder
         D                         C
Let my heart speak louder than my head [head, head, head]
D                          C
Heart beat louder than my head [head, head, head]
D
Heart speak louder
       C                  G/B
Wanna feel that rhythm, feel that drum
        D'
Let my heart beat louder
        D                          G (start picking)
Let my heart speak louder than my head

 G               Cadd9         G/B
e|-3---3---3---3--3---3---3---3--3---3---3---3----|
G|---3---3---3------1---1---1------0---0---0---0--|
D|------------------------------------------------|
A|--------------2-3------------3-2----------------|
E|-3----------------------------------------------|

I, I am over overthinking 

Cadd9             G
e|-3---3---3---3---3---3---3---3----|
G|---1---1---1---1---3---3---3---3--|
D|----------------------------------|
A|-3--------------------------------|
E|-----------------3----------------|

of how to get you back

C Cadd9           G/B
e|-3---3---3---3--3---3---3---3----|
G|---1---1---1------0---0---0---0--|
D|---------------------------------|
A|-3------------3-2----------------|
E|---------------------------------|

I'm checking out for the weekend

Cadd9
e|-3---3---3---3---|
G|---1---1---1---1-|
D|-----------------|
A|-3---------------|
E|-----------------| 

And I ain't going back

G (strum, palm mute)
I don't need no shoulder
C
I'm gonna be a soldier
G                  Em          C           D
I just wanna feel somethin' I don't understand


*Chorus*

Bridge:

Em          D'
Oh, letting go
        G/B            D
Yet it feel so good, so right
Em          D'
Oh, all I know
                   C
Is that I let my heart beat
G             C             G
Heart speak louder than my louder than my
C            G           C              G
Heart beat heart speak louder than my louder than my
Em          D'           Em             D'             C
Heart beat heart speak louder than my louder than my louder, louder, louder, louder

*Chorus*
Suggest correction
What's this?
You can suggest a correction to this tab. Community and Mods will review your correction and vote to approve or reject it.
comments
We did not receive enough feedback on this tab! Please rate:
print report bad tab
1 2 3 4 5
1 comment total.
0 reply
HuiyingggT 12 wrote on August 8 2011, 11:24 am

Can you post one with the full chords? :)

guest
You may want to rate the tab now too:
select rating
Please do not post tabs as comments. Select "correction" instead!