Oops, an error
Loading. Please wait.

Que Digo Yo tab

14 views 1 this week
no commentswrite comment
1 2 3 4 5
3 more votes to show rating
add to favorites
×
Save as Personal and add changes to this tab that will be seen only by you. Learn more ›
×
You can save this tab as Personal to edit and correct it or add notes. All changes will be seen only by you. Learn more »
launch autoscroll
font size
0
reset
how to read this tab
guitar tuner
edit
Autoscroll
slow
fast
+/-
esc
set tempo
stop
Segunda transcripción con otra canción de Charlene Arián se llama
Que digo yo esta bastante sencilla, en versos y pre-coro lleva
prácticamente los mismos arpeggios que especifico a continuación,
y en el coro va con rasgueo; tambien pongo las notas por si la
quieren tocar solo con rasgueo, y dice así:

Versos:

         D                 G
e|-----0-----0-----|-----0-----0-----|
b|---3-----3-----3-|---3-----3-----3-|
g|-2-----2-----2---|-0-----0-----0---| (A esto le llamaré Fig.1)
D|-----------------|-----------------|
A|-----------------|-----------------|
E|-----------------|-----------------|

Pre-coro:

         D                 G
e|-----2-----2-----|-----2-----2-----|
b|---3-----3-----3-|---3-----3-----3-|
g|-2-----2-----2---|-0-----0-----0---| (A esto le llamaré Fig.2)
D|-----------------|-----------------|
A|-----------------|-----------------|
E|-----------------|-----------------|
------------------------------------------------------------------

Intro:

         D                  G                D                 G
e|-----0-----0-----|-----0-----------|-----0-----0-----|-----------------|
b|---3-----3-----3-|---3-------------|---3-----3-----3-|-----------------|
g|-2-----2-----2---|-0---------------|-2-----2-----2---|-0---------------|
D|-----------------|-----------------|-----------------|-----------------|
A|-----------------|-----------------|-----------------|-----------------|
E|-----------------|-----------------|-----------------|-----------------|


          Fig.1
Dentro de mi
                       Fig.1
hay tantas ganas de vivir
          Fig.1
Dentro de ti
                        Fig.1
hay tantas ganas de sentir

Fig.1
Miras en mis ojos
                             Fig.1
me llevas a viajar donde no fui
            Fig.1
Tiendes tu mano
                               Fig.1
y me invitas a tu mundo descubrir

     Fig.2
A soñar
       Fig.2
Que puedo volver a amar

D           A
Y que digo yo
         Bm
si antes de que hablaras
              G          A
se me estremecía la ilusión

D           A
Y que digo yo
             Bm
si aun no he dicho nada
               G          A
y en un beso llevas mi razón


=Aqui va de nuevo en Intro=

          Fig.1
Dentro de mi
                                  Fig.1
hay tanto amor vestido de paciencia
          Fig.1
Dentro de ti
                                   Fig.1
hay tanta tristeza, daño y tanta guerra.

Fig.1
Cierro bien tus ojos
                             Fig.1
e intento provocarte escalofríos
            Fig.1
Entre esos nervios
                                  Fig.1
que obligan a que quiera hacerte mío

     Fig.2
A soñar
        Fig.2
Que puedes volver a amar

D           A
Y que digo yo
         Bm
si antes de que hablaras
              G          A
se me estremecía la ilusión

D           A
Y que digo yo
             Bm
si aun no he dicho nada
               G          A
y en un beso llevas mi razón

          C
Sera que aún no te das cuenta
  G                    D
que te empiezo a enamorar

          C
Será que aun no me doy cuenta
  G                     A
que algo acabas de empezar

D           A
Y que digo yo
         Bm
si antes de que hablaras
              G          A
se me estremecía la ilusión

D           A
Y que digo yo
             Bm
si aun no he dicho nada
               G          A      Fig.1
y en un beso llevas mi razón

Fig.1
Dentro de mi,
                 Fig.2-Fig.2-D
dentro de ti hay


Terminamos la canción con un bajeo en D, es decir, con bajeo en la
cuarta cuerda al aire.

Eso seria todo, espero que les sirva de algo.
Saludos!
Dudas, comentarios, sugerencias, agradecimientos o cualquier cosa a
MI correo:
balkirian_89@

            
            
Suggest correction
Creating personal tab
Creating personal tab
You can edit any tab online and save it as your Personal.

You can edit, replace or remove any tab part or add personal notes – all changes will be seen only by you.

Personal tabs can be accessed anytime from any device, even offline.
Learn more »
Give kudos to tab author, rate the tab!
1 2 3 4 5
comments
print report bad tab
guest
Wanna post a correction for this tab? Suggest correction