Oops, an error
Loading. Please wait.

Please Come Home For Christmas Bass Tab

49 views 21 this week
no commentswrite comment
1 2 3 4 5
3 more votes to show rating
add to favorites
launch autoscroll
font size
0
reset
guitar tuner
Autoscroll
slow
fast
+/-
esc
set tempo
stop
Help us to improve Ultimate-Guitar.com Take our survey!
×
Author
Difficulty
[Verse 1]: "Bells will be ringing this sad sad news..."
G|---------------------------------------------------------------------------------------------------|
D|--------------9---------9-------6-7----7---7-6-7-8----8---8-8-------6-7---6--------------2-4----4--|
A|---------7---------7--------7-9-------------------------------7---9---------9-7----4---4-----------|
E|---------------------------------------------------------------------------------------------------|

G|---------------------------------|
D|---6-8-9-9-9-9-9-9---------------|
A|-9-------------------------5-6-7-|
E|-------------------7-7-7-7-------|


[Verse 2]: "Choirs will be singing "Silent Night..." 
G|----------------------------------------------------------------------------------------|
D|---9-----------------6-7----7---7-6-7-8----8---8-8-------6-7---6--------------2-4-------|
A|--------7----7---7-9-------------------------------7---9---------9-7----4---4-----------|
E|-------------------------------------------------------------------------------------7--|

G|---------------------------------|
D|---------------------------4-6-7-|
A|---4-6-7-7-7-7-7-7-7-7-7-7-------|
E|-7-------------------------------|


[Bridge]: "Friends and relations, send salutations..."
G|--------------------------------------------------------------------------------------|
D|---7----7----7----7---6--------9-----------------6-7----7----7-7----7---7-6-----------|
A|------------------------9-7---------7----7---7-9----------------------------9-7----7--|
E|--------------------------------------------------------------------------------------|

G|---------------------------------|
D|---6-8-9-9-9-9-9-9---------------|
A|-9-------------------------5-6-7-|
E|-------------------7-7-7-7-------|


[Verse 3]: "Then won't you tell me..."
G|-----------------------------------------------------------6--4-----------6-----4-|
D|---9-----------------6-7----7---7-8----8---8-8-8------6----------7--8--9-----4----|
A|--------7----7---7-9-----------------------------7--------------------------------|
E|----------------------------------------------------------------------------------|

G|-------------------------|
D|-------------------------|
A|-7---7-6-----------5-6-7-|
E|---------9-7-7-7-7-------|


[Verse 4]:                                     "ooo no more sorrow..."
G|----------------------------------------------------------6--4-----------6-----4--------------|
D|---9-----------------6-7----7---7-6-7-8----8---------6----------7--8--9-----4---------7-7-7---|
A|--------7----7---7-9----------------------------7---------------------------------7---------7-|
E|----------------------------------------------------------------------------------------------|
Suggest correction
Give kudos to tab author, rate the tab!
1 2 3 4 5
comments
print report bad tab
guest
You may want to rate the tab now too:
select rating
Wanna post a correction for this tab? Suggest correction