Oops, an error
Loading. Please wait.

Please Come Home For Christmas tab

25 views 1 this week
no commentswrite comment
1 2 3 4 5
3 more votes to show rating
add to favorites
×
Save as Personal and add changes to this tab that will be seen only by you. Learn more ›
×
You can save this tab as Personal to edit and correct it or add notes. All changes will be seen only by you. Learn more »
launch autoscroll
font size
0
reset
how to read this tab
guitar tuner
edit
Autoscroll
slow
fast
+/-
esc
set tempo
stop
Author
Difficulty
PLEASE COME HOME FOR CHRISTMAS  
                      As recorded by : Charles Brown 
Tabbed by: Nick Dechant
Email: Dinotabs94@gmail.com 

Tuning: Standard EADGBe
Key: E

Chords Used in This Song: 
E: x7999x or 022100
Emaj7: x7989x or 021100
E7: x79797x or 020100
A: 577655 or x02220
A#dim7: 67565x or x12320
C#min: x46654 or xx2120
F#min: 244222 or xxx222
B: x24442 or xxx442
Am: 577555 or x02210
G#7: 353433 or x6x898

~Intro: Bells ringing. You can do this with real bells; play harmonics on the 12th fret;
or just start at the verse.

~Verse 1: This song was originally played on a piano, and therefore has been tabbed like a piano.
The pointer, middle, and ring fingers are used to pluck the three high notes while the thumb
hits the bass note. (Similar to how a piano player uses their right hand to play the high (treble)
notes while the left hand plays the lower (bass) notes.

If you just want to strum chords with the song, the chords names that correspond to the finger
picking are above the tab!

I have tried to sync up the lyrics with what is going on, but it is not completely accurate! 
It does give you a general sense of the placement of the words in relationship to the music though


[Verse 1]
                E             (Emaj7)         E7
Bells will be ringing,                 the glad…news             oh, what..
e|--------------4-4-4-4-4-4----4-4-4-4-4-4----4-4-4-4-4-4----4-4-4-4-4-4----|
B|--------------5-5-5-5-5-5----4-4-4-4-4-4----3-3-3-3-3-3----3-3-3-3-3-3----|
G|--------------4-4-4-4-4-4----4-4-4-4-4-4----4-4-4-4-4-4----4-4-4-4-4-4----|
D|-----------------------------------------------------------0--------------|
A|-----------------------------2--------------------------------------------|
E|--------------0-----------------------------0-----------------------------|

   A                             A#dim7
 A Christmas      to have the    Blues              My baby’s
e|-0-0-0-0-0-0----0-0-0-0-0-0----0-0-0-0-0-0----0-0-0-0-0-0-----------------|
B|-2-2-2-2-2-2----2-2-2-2-2-2----2-2-2-2-2-2----2-2-2-2-2-2-----------------|
G|-2-2-2-2-2-2----2-2-2-2-2-2----3-3-3-3-3-3----3-3-3-3-3-3-----------------|
D|--------------------------------------------------------------------------|
A|-0--------------0--------------1--------------1---------------------------|
E|--------------------------------------------------------------------------|

   E              A              E              C#min
   Gone                            friends
e|-4-4-4-4-4-4----0-0-0-0-0-0----4-4-4-4-4-4--------------------------------|
B|-5-5-5-5-5-5----2-2-2-2-2-2----5-5-5-5-5-5----5-5-5-5-5-5-----------------|
G|-4-4-4-4-4-4----2-2-2-2-2-2----4-4-4-4-4-4----6-6-6-6-6-6-----------------|
D|----------------------------------------------6-6-6-6-6-6-----------------|
A|----------------0-----------------------------4---------------------------|
E|-0-----------------------------0------------------------------------------|
                                                                        
   F#min                                 B                                                                  
   greetings                    Once again                Choirs will be
e|-2-2-2-2-2-2----2-2-2-2-2-2----2-2-2-2-2-2----2-2-2-2-2-2-----------------|
B|-2-2-2-2-2-2----2-2-2-2-2-2----4-4-4-4-4-4----4-4-4-4-4-4-----------------|
G|-2-2-2-2-2-2----2-2-2-2-2-2----4-4-4-4-4-4----4-4-4-4-4-4-----------------|
D|--------------------------------------------------------------------------|
A|-------------------------------2--------------2---------------------------|
E|-2--------------2---------------------------------------------------------|

[Verse 2]
   E             (Emaj7)         E7
   Singin’                      Si-a-lent    Night                         Christmas 
e|-4-4-4-4-4-4----4-4-4-4-4-4----4-4-4-4-4-4----4-4-4-4-4-4----------------|
B|-5-5-5-5-5-5----4-4-4-4-4-4----3-3-3-3-3-3----3-3-3-3-3-3----------------|
G|-4-4-4-4-4-4----4-4-4-4-4-4----4-4-4-4-4-4----4-4-4-4-4-4----------------|
D|----------------------------------------------0--------------------------|
A|----------------2--------------------------------------------------------|
E|-0-----------------------------0-----------------------------------------|

   A                             A#dim7
   Carols                  by Candle Light                      Please
e|-0-0-0-0-0-0----0-0-0-0-0-0----0-0-0-0-0-0----0-0-0-0-0-0-----------------|
B|-2-2-2-2-2-2----2-2-2-2-2-2----2-2-2-2-2-2----2-2-2-2-2-2-----------------|
G|-2-2-2-2-2-2----2-2-2-2-2-2----3-3-3-3-3-3----3-3-3-3-3-3-----------------|
D|--------------------------------------------------------------------------|
A|-0--------------0--------------1--------------1---------------------------|
E|--------------------------------------------------------------------------|


   E              A              E              C#min
   Christmas        Please                                If not for
e|-4-4-4-4-4-4----0-0-0-0-0-0----4-4-4-4-4-4--------------------------------|
B|-5-5-5-5-5-5----2-2-2-2-2-2----5-5-5-5-5-5----5-5-5-5-5-5-----------------|
G|-4-4-4-4-4-4----2-2-2-2-2-2----4-4-4-4-4-4----6-6-6-6-6-6-----------------|
D|----------------------------------------------6-6-6-6-6-6-----------------|
A|----------------0-----------------------------4---------------------------|
E|-0-----------------------------0------------------------------------------|

   F#min          B              E             E7
    Christmas,           By Years Night                       Friends and Re-
e|-2-2-2-2-2-2----2-2-2-2-2-2----4-4-4-4-4-4----4-4-4-4-4-4-----------------|
B|-2-2-2-2-2-2----4-4-4-4-4-4----5-5-5-5-5-5----3-3-3-3-3-3-----------------|
G|-2-2-2-2-2-2----4-4-4-4-4-4----4-4-4-4-4-4----4-4-4-4-4-4-----------------|
D|--------------------------------------------------------------------------|
A|----------------2---------------------------------------------------------|
E|-2-----------------------------0--------------0---------------------------|

[Chorus 1]
   A                                     Am
  -lations            Send Sal-u-tations
e|-5-5-5-5-5-5----5-5-5-5-5-5----5-5-5-5-5-5----5-5-5-5-5-5-----------------|
B|-5-5-5-5-5-5----5-5-5-5-5-5----5-5-5-5-5-5----5-5-5-5-5-5-----------------|
G|-6-6-6-6-6-6----6-6-6-6-6-6----5-5-5-5-5-5----5-5-5-5-5-5-----------------|
D|--------------------------------------------------------------------------|
A|--------------------------------------------------------------------------|
E|-5--------------5--------------5--------------5---------------------------|

   E            B                  E                  E7
   Sure       Stars                Above                       This is
e|-4-4-4-4-4-4----2-2-2-2-2-2----4-4-4-4-4-4----4-4-4-4-4-4-----------------|
B|-5-5-5-5-5-5----4-4-4-4-4-4----5-5-5-5-5-5----3-3-3-3-3-3-----------------|
G|-4-4-4-4-4-4----4-4-4-4-4-4----4-4-4-4-4-4----4-4-4-4-4-4-----------------|
D|--------------------------------------------------------------------------|
A|----------------2---------------------------------------------------------|
E|-0-----------------------------0--------------0---------------------------|


   A                                     Am
   Christmas                     Dear                           Time of
e|-5-5-5-5-5-5----5-5-5-5-5-5----5-5-5-5-5-5----5-5-5-5-5-5-----------------|
B|-5-5-5-5-5-5----5-5-5-5-5-5----5-5-5-5-5-5----5-5-5-5-5-5-----------------|
G|-6-6-6-6-6-6----6-6-6-6-6-6----5-5-5-5-5-5----5-5-5-5-5-5-----------------|
D|--------------------------------------------------------------------------|
A|--------------------------------------------------------------------------|
E|-5--------------5--------------5--------------5---------------------------|


   F#min                                 B
   Year           to be          love
e|-2-2-2-2-2-2----2-2-2-2-2-2----2-2-2-2-2-2----2-2-2-2-2-2-----------------|
B|-2-2-2-2-2-2----2-2-2-2-2-2----4-4-4-4-4-4----4-4-4-4-4-4-----------------|
G|-2-2-2-2-2-2----2-2-2-2-2-2----4-4-4-4-4-4----4-4-4-4-4-4-----------------|
D|--------------------------------------------------------------------------|
A|-------------------------------2--------------2---------------------------|
E|-2--------------2---------------------------------------------------------|


[Verse 3]
   E             (Emaj7)         E7
Tell me                     more roam               Christmas and 
e|-4-4-4-4-4-4----4-4-4-4-4-4----4-4-4-4-4-4----4-4-4-4-4-4-----------------|
B|-5-5-5-5-5-5----4-4-4-4-4-4----3-3-3-3-3-3----3-3-3-3-3-3-----------------|
G|-4-4-4-4-4-4----4-4-4-4-4-4----4-4-4-4-4-4----4-4-4-4-4-4-----------------|
D|----------------------------------------------0---------------------------|
A|----------------2---------------------------------------------------------|
E|-0-----------------------------0------------------------------------------|

   A                             A#dim7
   New years            find you home
e|-0-0-0-0-0-0----0-0-0-0-0-0----0-0-0-0-0-0----0-0-0-0-0-0-----------------|
B|-2-2-2-2-2-2----2-2-2-2-2-2----2-2-2-2-2-2----2-2-2-2-2-2-----------------|
G|-2-2-2-2-2-2----2-2-2-2-2-2----3-3-3-3-3-3----3-3-3-3-3-3-----------------|
D|--------------------------------------------------------------------------|
A|-0--------------0--------------1--------------1---------------------------|
E|--------------------------------------------------------------------------|
 
[Bridge 1]
  E               G#7               C#m      B        A        A#dim
  Sorrow                            Pain
e|-4-4-4-4-4-4-----8-8-8-8-8-8-8----9-9-9----7-7-7----5-5-5----6-6-6--------|
B|-5-5-5-5-5-5-----9-9-9-9-9-9-9----9-9-9----7-7-7----5-5-5----5-5-5--------|
G|-4-4-4-4-4-4-----8-8-8-8-8-8-8----9-9-9----8-8-8----6-6-6----6-6-6--------|
D|--------------------------------------------------------------------------|
A|-----------------6--------------------------------------------------------|
E|-0--------------------------------9--------7--------5--------6------------|

  E         C#m      F#min    B7       E              E7
   Happy       Happy                   again
e|-4-4-4----4-4-4----2-2-2----2-2-2----0-0-0-0-0-0--------------------------|
B|-5-5-5----5-5-5----2-2-2----4-4-4----0-0-0-0-0-0----3-3-3-3-3-3-----------|
G|-4-4-4----6-6-6----2-2-2----2-2-2----1-1-1-1-1-1----1-1-1-1-1-1-----------|
D|----------------------------------------------------0-0-0-0-0-0-----------|
A|----------4-----------------2---------------------------------------------|
E|-0-----------------2-----------------0--------------0---------------------|

[Solo]
(Backing Chords Same as Verse 1):

   E             (Emaj7)         E7 
e|-4-4-4-4-4-4----4-4-4-4-4-4----4-4-4-4-4-4----4-4-4-4-4-4----------------|
B|-5-5-5-5-5-5----4-4-4-4-4-4----3-3-3-3-3-3----3-3-3-3-3-3----------------|
G|-4-4-4-4-4-4----4-4-4-4-4-4----4-4-4-4-4-4----4-4-4-4-4-4----------------|
D|----------------------------------------------0--------------------------|
A|----------------2--------------------------------------------------------|
E|-0-----------------------------0-----------------------------------------|

   A                             A#dim7
e|-0-0-0-0-0-0----0-0-0-0-0-0----0-0-0-0-0-0----0-0-0-0-0-0-----------------|
B|-2-2-2-2-2-2----2-2-2-2-2-2----2-2-2-2-2-2----2-2-2-2-2-2-----------------|
G|-2-2-2-2-2-2----2-2-2-2-2-2----3-3-3-3-3-3----3-3-3-3-3-3-----------------|
D|--------------------------------------------------------------------------|
A|-0--------------0--------------1--------------1---------------------------|
E|--------------------------------------------------------------------------|

[Solo]
(Lead Guitar):

e|-----7-9---(7s9-9-9)x3---7s9-12-9--9s7----7s9-7s9-7s9s7-------------------|
B|-7s9-------(7s9-9-9)x3---7s9-9--9--9s7----7s9-7s9-7s9s7--------5--7-------|
G|----------------------------------------------------------5s6-------------|
D|--------------------------------------------------------------------------|
A|--------------------------------------------------------------------------|
E|--------------------------------------------------------------------------|


e|--------------------------------------------------------------------------|
B|-6s7-7-7---6s7-7-7---6s7-10-7--6s7-10-7--8--------------------------------|
G|-5s6-6-6---5s6-6-6---5s6-6--6--5s6-6--6--6--------------------------------|
D|--------------------------------------------------------------------------|
A|--------------------------------------------------------------------------|
E|--------------------------------------------------------------------------|

[Outro]
(Almost the same chords as the bridge):

  E               G#7               C#m      B        A        A#dim
  Sorrow                            Pain
e|-4-4-4-4-4-4-----8-8-8-8-8-8-8----9-9-9----7-7-7----5-5-5----6-6-6--------|
B|-5-5-5-5-5-5-----9-9-9-9-9-9-9----9-9-9----7-7-7----5-5-5----5-5-5--------|
G|-4-4-4-4-4-4-----8-8-8-8-8-8-8----9-9-9----8-8-8----6-6-6----6-6-6--------|
D|--------------------------------------------------------------------------|
A|-----------------6--------------------------------------------------------|
E|-0--------------------------------9--------7--------5--------6------------|

  E         C#m      F#min    B7       E    A        E
   Happy          Christmas            Again
e|-4-4-4----4-4-4----2-2-2----2-2-2----0----0-0-0----0----------------------|
B|-5-5-5----5-5-5----2-2-2----4-4-4----0----2-2-2----0----------------------|
G|-4-4-4----6-6-6----2-2-2----2-2-2----1----2-2-2----1----------------------|
D|--------------------------------------------------------------------------|
A|----------4-----------------2-------------0-------------------------------|
E|-0-----------------2-----------------0-------------0----------------------| 

            
            
Suggest correction
Creating personal tab
Creating personal tab
You can edit any tab online and save it as your Personal.

You can edit, replace or remove any tab part or add personal notes – all changes will be seen only by you.

Personal tabs can be accessed anytime from any device, even offline.
Learn more »
Give kudos to tab author, rate the tab!
1 2 3 4 5
comments
print report bad tab
guest
You may want to rate the tab now too:
select rating
Wanna post a correction for this tab? Suggest correction