Oops, an error
Loading. Please wait.

Round In Cirlces chords

88 views 6 this week
no commentswrite comment
1 2 3 4 5
1 last vote to show rating
add to favorites
×
Save as Personal and add changes to this tab that will be seen only by you. Learn more ›
×
You can save this tab as Personal to edit and correct it or add notes. All changes will be seen only by you. Learn more »
launch autoscroll
font size
0
reset
transpose
0
reset
display chords
guitar tuner
edit
Autoscroll
slow
fast
+/-
esc
set tempo
stop
Author
Difficulty
About this tab version
Album version chords with solo included. Was this info helpful? Yes No
Strumming
There is no strumming pattern for this song yet. and get +5 IQ
[Intro] 
G Em 

[Verse 1]
G
Why now, why here, why this old spot where we first got started?
Em
Red shoes, red dress, red lips Damn, girl couldn't look any hotter
D                                       C
Yeah, I know that you know I'll be here tonight, yeah

[Verse 2]
G
Something 'bout you, Something 'bout me like a flame near gasoline, yeah
Em
Something gonna burn, somethin' gonna break                      
                                   D
If you don't take your eyes off of me
                                         C
I thought you said we were gonna call it friends, So why you back here again? Oh

[Chorus]
G
Girl, I can bet in the morning, You gonna leave without warning
Em
It's gonna drive me crazy, But nothing can save me now
D
You got your hand on my hips, Pulling me close as you kiss my lips
C
We both know where this is going now, So we go
G 
On and on and on and on and on and on and on
Em 
On and on and on and on and on and on and on
   D
We go (we go)
                     C
Yeah, we go round in circles, Round in circles (yeah)

[Verse 3]
G
How long, how much is too much, girl, til you're onto another?
Em
But right here, right now, you can lie with me underneath these covers
D                                               C
Cause you know, I know that you're just playing games, You're never gonna change

[Chorus]
G
Girl, I can bet in the morning, You gonna leave without warning
Em
It's gonna drive me crazy, But nothing can save me now
D
You got your hand on my hips, Pulling me close as you kiss my lips
C
We both know where this is going now
So we go
G
On and on and on and on and on and on and on
Em
On and on and on and on and on and on and on
   D
We go (we go)
                     C
Yeah, we go round in circles, Round in circles (yeah)

[Solo]

e|-------------------------|-------------------------|-------------------------|-------------------------|
B|-----------------------7-|-7------8-8--------------|-----------------------7-|-7------8-8--------------|
G|-------------------7h9---|-------------------------|-------------------7h9---|-------------------------|
D|-------------------------|-------------------------|-------------------------|-------------------------|
A|-------------------------|-------------------------|-------------------------|-------------------------|
E|-------------------------|-------------------------|-------------------------|-------------------------|

e|-------------------------|-------------------------|----------------------10-|-10----------------------|
B|-----------------------7-|-7------10-10------------|----------------10h12----|------------------12p10--|
G|-------------------7h9---|-------------------------|-------------------------|-------------------------|
D|-------------------------|-------------------------|-------------------------|-------------------------|
A|-------------------------|-------------------------|-------------------------|-------------------------|
E|-------------------------|-------------------------|-------------------------|-------------------------|


[Chorus]
G 
Girl, I can bet in the morning, You gonna leave without warning
Em 
It's gonna drive me crazy, But nothing can save me now
D
You got your hand on my hips, Pulling me close as you kiss my lips
                C
And I know that now (We both know where this is going now,So we go
G
On and on and on and on and on and on and on (yeah, we go)
Em
On and on and on and on and on and on and on (yeah, we go)
   D
We go (we go)
                     C
Yeah, we go round in circles, Round in circles, Round in circles

[Outro]
G Em 
         D
Round in circles
          C                           G
Round and around, round and around, round and around

            
            
Suggest correction
Creating personal tab
Creating personal tab
You can edit any tab online and save it as your Personal.

You can edit, replace or remove any tab part or add personal notes – all changes will be seen only by you.

Personal tabs can be accessed anytime from any device, even offline.
Learn more »
Give kudos to tab author, rate the tab!
1 2 3 4 5
comments
print report bad tab
guest
You may want to rate the tab now too:
select rating
Wanna post a correction for this tab? Suggest correction