Oops, an error
Loading. Please wait.

Moanin Tab

11,497 views 45 this week
no commentswrite comment
1 2 3 4 5
x 3
add to favorites
launch autoscroll
font size
0
reset
how to read this tab
guitar tuner
×
Best way to learn
"Moanin"
Autoscroll
slow
fast
+/-
esc
set tempo
stop
Author
Difficulty
intermediate
Artist: Charles Mingus
Title : Moanin
Album : Blues and Roots (1959)

Intro
Standard Tuning

e|---------------|---------------|------------------------|----------|
B|---------------|---------------|------------------------|----------|
G|---------------|---------------|-------------2----------|----------| x2
D|----------2----|---------------|----------------2-------|----------|
A|--0------------|---------------|----0--3--0--------3----|----------|
E|---------------|--1------------|------------------------|--1-------|

e|---------------|-------------------|-----------------|---------------------|
B|---------------|-------------------|-----------------|---------------------|
G|---------------|-------------------|-----------------|------------------2--|
D|---------------|-------------------|-----------------|---------------------|
A|--0---3--5-----|---0--0--0-3--5-0--|----0--0--3--5---|--0--0--0--3-5--0----|
E|---------------|-------------------|-----------------|---------------------|

e|-------------------------|-------------------------|-----------------------|
B|-------------------------|-------------------------|-----------------------|
G|-------0--------------2--|-------0--------------2--|-------0--2------0--2--|
D|----------2--0-----------|----------2--0-----------|-----------------------|
A|----------------3--0-----|----------------3--0-----|-----------------------|
E|-------------------------|-------------------------|-----------------------|
       
e|-----------------------|
B|-----------------------|
G|-------0--2-------0----|
D|-----------------------|
A|-----------------------|
E|-----------------------|
Suggest correction
Give kudos to tab author, rate the tab!
1 2 3 4 5
comments
print report bad tab
guest
You may want to rate the tab now too:
select rating
Wanna post a correction for this tab? Suggest correction