Oops, an error
Loading. Please wait.

Escondidos chords

25 views 1 this week
no commentswrite comment
1 2 3 4 5
3 more votes to show rating
add to favorites
×
Save as Personal and add changes to this tab that will be seen only by you. Learn more ›
×
You can save this tab as Personal to edit and correct it or add notes. All changes will be seen only by you. Learn more »
launch autoscroll
font size
0
reset
transpose
0
reset
simplify chords
display chords
guitar tuner
edit
Autoscroll
slow
fast
+/-
esc
set tempo
stop
Strumming
There is no strumming pattern for this song yet. and get +5 IQ
INTRO

     E           A
e|-------------------------------------|
B|-------------------------------------|
G|-------------------------------------|
D|-------6-----6-----------------------|
A|-----7-----7-----7---7---7---7---7---|
E|---5-----5-----5---5---5---5---5-----|


Con INTRO
Te vi planeando tus argumentos
sin olvidarte los mios

y otra vez se sucede la discucion
que no tiene sentido


       E5          G#5         C#5         A5
  e|-------------------------------------------|
  B|-------------------------------------------|
  G|---9---8---6---8---9-------9---8---6---8---|
  D|---9---8---6---8---9-------9---8---6---6---|
  A|---7---6---4---6---7-------7---6---4-------|
  E|-------------------------------------------|


       E5          G#5         C#5         A5
  e|-------------------------------------------|
  B|-------------------------------------------|
  G|---9---8---6---8---9-------9---8---6---2---|
  D|---9---8---6---8---9-------9---8---6---2---|
  A|---7---6---4---6---7-------7---6---4---0---|
  E|-------------------------------------------|


Con INTRO
sobre los hombros de mi paciencia
cargaste tus sueños dormidos

y a pesar de poder cambiarnos los dos
quedamos escondidos otra vez


 E5                G#5       C#5     A5
dime cuando me alejo tu corazon a un lado
 E5                G#5               C#5   A5
dime como me escucho sin que le hubiera hablado
 E5             G#5       C#5      A5
mira como me dejo mi corazon a un lado
 E5            G#5        C#5    A5
mira como se pasaron todos estos años

E5  A5     E5  A5     E5  A5
     dimelo     dimelo     dimelo

 E5              A5
como queres que yo te entienda
 E5             A5
si lo sabes ni yo me entiendo
 E5              A5
como queres que yo te entienda
 E5             A5
si lo sabes ni yo me entiendo...

            
            
Suggest correction
Creating personal tab
Creating personal tab
You can edit any tab online and save it as your Personal.

You can edit, replace or remove any tab part or add personal notes – all changes will be seen only by you.

Personal tabs can be accessed anytime from any device, even offline.
Learn more »
Give kudos to tab author, rate the tab!
1 2 3 4 5
comments
print report bad tab
guest
Wanna post a correction for this tab? Suggest correction