Oops, an error
Loading. Please wait.

Dona Do Meu Pensamento Tab

4 views 4 this week
no commentswrite comment
1 2 3 4 5
3 more votes to show rating
add to favorites
launch autoscroll
font size
0
reset
how to read this tab
guitar tuner
Autoscroll
slow
fast
+/-
esc
set tempo
stop
Help us to improve Ultimate-Guitar.com Take our survey!
×
Author
Difficulty
novice
[Intro]
e|---------------------------------------------------------------------------|
B|---------------------------------------------------------------------------|
G|-4-4-4---------------------------------------------------------------------|
D|-4-2-4----------1h2h4-2-1-2-1----------------------------------------------|
A|-2-2-2----4--4-------------------1-2-1---------1-2-4-2-1-------------------|
E|--------2--2----------------4-4--------4-2-4-4-----------------------------|

        Duas vezes essa parte aqui em cima entre os pauzin
e|-------------------------------------------------------------------------------------------|
B|-------------------------------------------------------------------------------------------|
G|------------6-6-4-6-4--------------6-6-4-6-4---------------6-6-4-6-4-----------6-6-4-6-4---|
D|-6--6-6---6-6-6-4-6-4---2--2-2---2-6-6-4-6-4----6--6-6---6-6-6-4-6-4---2--2----6-6-4-6-4---|
A|-6--6-6---6-4-4-2-4-2---2--2-2---2-4-4-2-4-2----6--6-6---6-4-4-2-4-2---2--2-x6-4-4-2-4-2---|
E|-4--4-4---4-------------0--0-0---0--------------4--4-4---4-------------0--0----------------|
                                                                            
[Verse]
e|---------------------------------------------------------------------------|
B|---------------------------------------------------------------------------|
G|-------6-----------------6------------------6-6-4-6-4----------------------|
D|--6----6-8x--2------6----6-8x-2-2--2-2-2--2-6-6-4-6-4----------------------|
A|--6-8x-4-----2-16x--6-8x-4----2-2--2-2-2--2-4-4-2-4-2----------------------|
E|--4----------0------4---------0-0--0-0-0--0--------------------------------|
    x    x     x      x    x    x x
e|------------------------------------------------------------|
B|------------------------------------------------------------|
G|------------------------------------------------------------|
D|-----------1h2h4-2-1-2-1------------------------------------| (2x)
A|------4--4-------------------1-2-1---------1-2-4-2-1--------|
E|----2--2----------------4-4--------4-2-4-4------------------|

[Chorus]
e|---------------------------------------------------------------------------|
B|---------------------------------------------------------------------------|
G|--------------------------------------------------4-4-4--------------------|    
D|--6-4-6-4-6--2-2-2-2--2-2-2---6-4-6-4-6--2-2-2-2--4-4-4--------------------|
A|--6-4-6-4-6--2-2-2-2--2-2-2---6-4-6-4-6--2-2-2-2--2-2-2--------------------|
E|--4-2-4-2-4--0-0-0-0--0-0-0---4-2-4-2-4--0-0-0-0---------------------------|

e|--------------------------------------------------------------------------|
B|--------------------------------------------------------------------------|
G|-------------------------------------------------4-4-4--------------------|   
D|--6-4-6-4-6--2-2-2-2--2-2-2---6-4-6-4-6--2-2-----4-4-4--------------------|
A|--6-4-6-4-6--2-2-2-2--2-2-2---6-4-6-4-6--2-2-8x--2-2-2--------------------|
E|--4-2-4-2-4--0-0-0-0--0-0-0---4-2-4-2-4--0-0------------------------------|
                                               
e|-------------------------------------------------------------------------------------------|
B|-------------------------------------------------------------------------------------------|
G|------------6-6-4-6-4--------------6-6-4-6-4---------------6-6-4-6-4-----------6-6-4-6-4---|
D|-6--6-6---6-6-6-4-6-4---2--2-2---2-6-6-4-6-4----6--6-6---6-6-6-4-6-4---2--2----6-6-4-6-4---|
A|-6--6-6---6-4-4-2-4-2---2--2-2---2-4-4-2-4-2----6--6-6---6-4-4-2-4-2---2--2-x6-4-4-2-4-2---|
E|-4--4-4---4-------------0--0-0---0--------------4--4-4---4-------------0--0----------------|
                                                                            
[Verse]
e|---------------------------------------------------------------------------|
B|---------------------------------------------------------------------------|
G|-------6-----------------6------------------6-6-4-6-4----------------------|
D|--6----6-8x--2------6----6-8x-2-2--2-2-2--2-6-6-4-6-4----------------------|
A|--6-8x-4-----2-16x--6-8x-4----2-2--2-2-2--2-4-4-2-4-2----------------------|
E|--4----------0------4---------0-0--0-0-0--0--------------------------------|
    x    x     x      x    x    x x
e|------------------------------------------------------------|
B|------------------------------------------------------------|
G|------------------------------------------------------------|
D|-----------1h2h4-2-1-2-1------------------------------------| (2x)
A|------4--4-------------------1-2-1---------1-2-4-2-1--------|
E|----2--2----------------4-4--------4-2-4-4------------------|

[Chorus]
e|---------------------------------------------------------------------------|
B|---------------------------------------------------------------------------|
G|--------------------------------------------------4-4-4--------------------|    
D|--6-4-6-4-6--2-2-2-2--2-2-2---6-4-6-4-6--2-2-2-2--4-4-4--------------------|
A|--6-4-6-4-6--2-2-2-2--2-2-2---6-4-6-4-6--2-2-2-2--2-2-2--------------------|
E|--4-2-4-2-4--0-0-0-0--0-0-0---4-2-4-2-4--0-0-0-0---------------------------|

e|--------------------------------------------------------------------------|
B|--------------------------------------------------------------------------|
G|-------------------------------------------------4-4-4--------------------|   
D|--6-4-6-4-6--2-2-2-2--2-2-2---6-4-6-4-6--2-2-----4-4-4--------------------|
A|--6-4-6-4-6--2-2-2-2--2-2-2---6-4-6-4-6--2-2-8x--2-2-2--------------------|
E|--4-2-4-2-4--0-0-0-0--0-0-0---4-2-4-2-4--0-0------------------------------|
                                               
e|-------------------------------------------------------------------------------------------|
B|-------------------------------------------------------------------------------------------|
G|------------6-6-4-6-4--------------6-6-4-6-4---------------6-6-4-6-4-----------6-6-4-6-4---|
D|-6--6-6---6-6-6-4-6-4---2--2-2---2-6-6-4-6-4----6--6-6---6-6-6-4-6-4---2--2----6-6-4-6-4---|
A|-6--6-6---6-4-4-2-4-2---2--2-2---2-4-4-2-4-2----6--6-6---6-4-4-2-4-2---2--2-x6-4-4-2-4-2---|
E|-4--4-4---4-------------0--0-0---0--------------4--4-4---4-------------0--0----------------|

[Solo]
e|--------------------------------------------------------------------------------------------|
b|-------4/6-4---------------------------------------7/9-7------------------------------------|
g|-------------6--8----4--4/6-8---4-6-8--------------------8--6---4-6/8--6---4-6-8-4^~~~\p0---|
d|---6----------------6----------6------6~~~~\p0--6-------------------------------------------|
a|--------------------------------------------------------------------------------------------|
e|--------------------------------------------------------------------------------------------|

e|-------------------------------------------------|
b|--------------------------7-7/9-9/12-11^-7-7/9---|
g|-------6-8-----8-6------8------------------------|
d|---6h9-----6h9-----9--6--------------------------|
a|-------------------------------------------------|
e|-------------------------------------------------|

e|----------------------------------------------------------------|
B|----------------------------------------------------------------|
G|------6---------4-----------------------------------------------|  (4x)
D|--6-x-6-x--2-x--4-x---------------------------------------------|    
A|--6-x-4-x--2-x--2-x---------------------------------------------|
E|--4-x---x--0-x----x---------------------------------------------|

e|--------------------------------------------------------------------------------------------|
b|-------4/6-4---------------------------------------7/9-7------------------------------------|
g|-------------6--8----4--4/6-8---4-6-8--------------------8--6---4-6/8--6---4-6-8-4^~~~\p0---|
d|---6----------------6----------6------6~~~~\p0--6-------------------------------------------|
a|--------------------------------------------------------------------------------------------|
e|--------------------------------------------------------------------------------------------|

[Outro]
e|-------------------------------------------------------------------------------------------|
B|-------------------------------------------------------------------------------------------|
G|------------6-6-4-6-4--------------6-6-4-6-4---------------6-6-4-6-4-----------6-6-4-6-4---|
D|-6--6-6---6-6-6-4-6-4---2--2-2---2-6-6-4-6-4----6--6-6---6-6-6-4-6-4---2--2----6-6-4-6-4---|
A|-6--6-6---6-4-4-2-4-2---2--2-2---2-4-4-2-4-2----6--6-6---6-4-4-2-4-2---2--2-x6-4-4-2-4-2---|
E|-4--4-4---4-------------0--0-0---0--------------4--4-4---4-------------0--0----------------|
                                                                            
e|------------------------------------------------------------|
B|------------------------------------------------------------|
G|------------------------------------------------------------|
D|-----------1h2h4-2-1-2-1------------------------------------|  (4x)
A|------4--4-------------------1-2-1---------1-2-4-2-1--------|
E|----2--2----------------4-4--------4-2-4-4------------------|


************************************

| h  Hammer-on
| x  Dead note
| /  Slide up

************************************
Suggest correction
Give kudos to tab author, rate the tab!
1 2 3 4 5
comments
print report bad tab
guest
You may want to rate the tab now too:
select rating
Wanna post a correction for this tab? Suggest correction