Oops, an error
Loading. Please wait.

Hello Zep Tab

3,692 views 1 this week
2 commentsread comments
1 2 3 4 5
accurate
x 3
add to favorites
launch autoscroll
font size
0
reset
how to read this tab
guitar tuner
Tab Pro tools
  • play this tab
  • loop segment
  • change instrument
  • show fretboard
  • metronome
×
Best way to learn
"Hello Zep"
Autoscroll
slow
fast
+/-
esc
set tempo
stop
Difficulty
Tuning
intermediate
D A D G B E
This is the song off of the movie Saw (one of the best movies ever) I haven't quite
figured out the whole song but I did figure out parts of it so forgive me for not
having it all, I have most of it but the intro is kinda tricky so I will do my best.

Drop D Tuning (for the deep part after the verse aka trumbone part)

(.)-Palm muted

Intro (very light distortion) 2x
|--------------------------------------------------|
|--------------------------------------------------|
|--------------------------------------------------|
|--------------------------------------------------|
|--0h2--0h2--0h2p0h5-----0h2--0h2p3h5/7------------|
|--------------------------------------------------|


|--------------------------------------------------|
|--------------------------------------------------|
|--------------------------------------------------|
|--------------------------------------------------|
|--0h2--0h2--0h2p0h5-----0h2--0h2p3h5/7--0h2-------|
|--------------------------------------------------|


Verse pt.1 1x (With palm muted slides)
|---------------------0-0-------------------------0-0-|
|--5-5////3-3////1-1--0-0----5-5////8---8////3-3--0-0-|
|--7-7////5-5////3-3--0-0----7-7////10-10////5-5--0-0-|
|-----------------------------------------------------|
|-----------------------------------------------------|
|-----------------------------------------------------|


Verse pt.2 1x (Higher pitch)
|--------------------------0-0----------------------------0-0-|
|--12-12////10-10////8---8-0-0----12-12////15-15////10-10-0-0-|
|--14-14////12-12////10-10-0-0----14-14////17-17////12-12-0-0-|
|-------------------------------------------------------------|
|-------------------------------------------------------------|
|-------------------------------------------------------------|


Chorus pt.1 2 1/2x
|--0-0---------0-0--------0--------------0---------0-0--------0------------|
|--0-0---------0-0--------0--------------0---------0-0--------0------------|
|--0-0--0h2p3--0-0--0h2p3-0--3h2p0h3p5---0--0h2p3--0-0--0h2p3-0--3h2p0h3p5-|
|--------------------------------------------------------------------------|
|--------------------------------------------------------------------------|
|--------------------------------------------------------------------------|
   . .         . .        .              .         . .        .


Chorus pt.2 2x
|--0---------0--------0--------0---------0--------0--------|
|--0---------0--------0--------0---------0--------0--------|
|--0--5h7p8--0--5h8---0--9-----0--5h7p8--0--5h8---0--9-----|
|------------------5------5h7------------------5------5h7--|
|----------------------------------------------------------|
|----------------------------------------------------------|


Chorus pt.3 1x
|--0-0---------0-0--------0-------------0---------0-0--------0-------------|
|--0-0---------0-0--------0-------------0---------0-0--------0-------------|
|--0-0--5h7p8--0-0--5h7p8-0--8h7p5h8----0--5h7p8--0-0--5h7p8-0--8h7p5h8----|
|-----------------------------------5----------------------------------5---|
|--------------------------------------------------------------------------|
|--------------------------------------------------------------------------|
   . .         . .        .             .         . .        .


Chorus pt.3 1x
|--0-0-----------0-0----------0----------------|
|--0-0-----------0-0----------0-------------12-|
|--0-0--9h11p12--0-0--9h11p12-0--12h11p9h12-14-|
|----------------------------------------------|
|----------------------------------------------|
|----------------------------------------------|
   . .           . .          .


I will add more later so check back when you like. I will add more as soon as I can.


http://www.9inchnails.net/remix-files/
comments
We did not receive enough feedback on this tab! Please rate:
print report bad tab
1 2 3 4 5
2 comments total.
0 reply
kevdawg wrote on February 9 2007, 06:57 pm

dude, this doesn't sound right. it's off

-1 reply
rocker301 wrote on March 5 2007, 10:18 pm

what is this? and why did u put a fingernail website at the bottom of the page






retard

I want to post or [tab]
guest
You may want to rate the tab now too:
select rating
Please do not post tabs as comments. Select "correction" instead!