Oops, an error
Loading. Please wait.

Resident Evil Extinction Tab

3,877 views 1 this week
no commentswrite comment
1 2 3 4 5
please rate
add to favorites
launch autoscroll
font size
0
reset
how to read this tab
guitar tuner
Tab Pro tools
  • play this tab
  • loop segment
  • change instrument
  • show fretboard
  • metronome
×
Best way to learn
"Resident Evil Extinction"
Autoscroll
slow
fast
+/-
esc
set tempo
stop
Contributor
In the Resident Evil: Extinction Sountrack, Charlie Clouser does four little Songs: Main 
Losing, Laser Tunnel, and Convoy.
For some of these there aren't a whole lot of guitar parts, so I transcribed as much as 
could.

TUNING: Drop B (B,F#,B,E,G#,C#)

MAIN TITLE

0:08
Lead Melody - 4x
|-------22----20----17----18----15----17-------------|
|-15-16----15----15----15----15----15----15-16~------|
|----------------------------------------------------|
|----------------------------------------------------|
|----------------------------------------------------|
|----------------------------------------------------|

Backing                             1st-3rd     4th
|----------------------------------------|-----------|----------------|
|----------------------------------------|-----------|----------------|
|----------------------------------------|-----------|----------------|
|----------------------------------------|-----------|----------------|
|----------------------------------------|-----------|-5pb(6)--d(5)~--|
|-1~-------------------------------------|--h2------p|-0~-------------|

There is a swell at 0:26 F#|-5b(6)-----d(5)~--|


LOSING

|----------------------------------------------------------|
|----------------------------------------------------------|
|----------------------------------------------------------|
|-1~--------------1-1-------------1~--------------1-1------|
|-1~--------------1-1-------------1~--------------1-1------|
|-1~--------------1-1-------------1~--------------1-1------|

0:14
|----------------------------------------------------------|
|----------------------------------------------------------|
|----------------------------------------------------------|
|-1-1-----------------------------1-1----------------------|
|-1-1-----------------------------1-1----------------------|
|-1-1-----------------------------1-1----------------------|

0:23
|----------------------------------------------------------|
|----------------------------------------------------------|
|----------------------------------------------------------|
|-2~-------------------------------------------------------|
|-2~-------------------------------------------------------|
|-2~-------------------------------------------------------|

0:31
|----------------------------------------------------------|
|----------------------------------------------------------|
|----------------------------------------------------------|
|-1-1-------------1-1-------------1-1-------------1-1------|
|-1-1-------------1-1-------------1-1-------------1-1------|
|-1-1-------------1-1-------------1-1-------------1-1------|

0:42
|----------------------------------------------------------|
|----------------------------------------------------------|
|----------------------------------------------------------|
|-1-1-------------1-1-------------1-1-------------1~-------|
|-1-1-------------1-1-------------1-1-------------1~-------|
|-1-1-------------1-1-------------1-1-------------1~-------|

1:02
|----------------------------------------------------------|----|
|----------------------------------------------------------|----|
|----------------------------------------------------------|----|
|-2~------------------------------1~-----------------------|----|
|-2~------------------------------1~-----------------------|-0~-|
|-2~------------------------------1~-----------------------|-0~-|


LASER TUNNEL

Guitar I
|----------------------------------------------------------|
|----------------------------------------------------------|
|----------------------------------------------------------|
|-7-----------7--------------------7-----------------------|
|-5-----------5--------------------5-----------------------|
|-0-------00000----------------0-0-0---0-------------------|
          PM|-                 - -     -
0:06
|----------------------------------------------------------|
|----------------------------------------------------------|
|----------------------------------------------------------|
|----------------------------------------------------------|
|-5-5---------------5-5------------------------------------|
|-0-0---------------0-0-------------000000-----------------|
  - -               - -             ------

|----------------------------------------------------------|
|----------------------------------------------------------|
|----------------------------------------------------------|
|---7-----------------7-----------------7------------------|
|---5-----------------5-----------------5------------------|
|-0-0--------000111-0-0--------000111-0-0--------000111----|
  -          ------ -          ------ -          ------

0:19
|----------------------------------------------------------|
|----------------------------------------------------------|
|----------------------------------------------------------|
|---7-----------------7-----------------7---------------0--|
|---5-----------------5-----------------5---------------0--|
|-0-0--------000111-0-0--------000111-0-0--------000111-0--|
  -          ------ -          ------ -          ------

Guitar II
0:06
|----------------------------------------------------------|
|----------------------------------------------------------|
|----------------------------------------------------------|
|----------------------------------------------------------|
|------------/5~-------------------------------------------|
|----------------------------------------------------------|

|----------------------------------------------------------| Repeat
|----------------------------------------------------------| again
|----------------------------------------------------------| at
|----------------------------------------------------------| 0:19
|---5~----------------6~----------------7~-----------------|
|----------------------------------------------------------|


CONVOY

Guitar I - Repeat throughout
|---------------------------------------------|
|---------------------------------------------|
|---------------------------------------------|
|-----1---------------------1-----------------|
|-1-1-1-------1-1--1-1--1-1-1-------1-1--1-1--|
|-1-1-1-------1-1--1-1--1-1-1-------1-1--1-1--|
  PM|         - -  - -  - -         - -  - -

Lead Melody
|-------22------20-20h22-17----18-18h20-15----17-----------|
|-15-16----1515-------------15-------------15-------16-13--|
|----------------------------------------------------------|
|----------------------------------------------------------|
|----------------------------------------------------------|
|----------------------------------------------------------|

|-------22------20-20h22-17----18-18h20-15-----------------|
|-15-16----1515-------------15-------------(fades out)-----|
|----------------------------------------------------------|
|----------------------------------------------------------|
|----------------------------------------------------------|
|----------------------------------------------------------|

0:13
|------------------------------------------------------------|
|------------------------------------------------------------|
|------------------------------------------------------------|
|------------------------------------------------------------|
|-/5------3---1---0----------1---0---------------------------|
|------------------------5--------------0-1---3---0------0~--|

There ya go.
*Please Rate*
comments
We did not receive enough feedback on this tab! Please rate:
print report bad tab
1 2 3 4 5
I want to post or [tab]
guest
You may want to rate the tab now too:
select rating
Please do not post tabs as comments. Select "correction" instead!