Oops, an error
Loading. Please wait.

1922 tab

version 1
version 1

Whole song

Interactive

2,320 views 54 this week
4 commentsread comments
1 2 3 4 5
x 5
add to favorites
×
Save as Personal and add changes to this tab that will be seen only by you. Learn more ›
×
You can save this tab as Personal to edit and correct it or add notes. All changes will be seen only by you. Learn more »
launch autoscroll
font size
0
reset
how to read this tab
guitar tuner
edit
Autoscroll
slow
fast
+/-
esc
set tempo
stop
Charlie Parr, 1922 from https://youtu.be/4YfJNj7cZb4

Open G capo 2. Let notes ring

D|-----------------|----------------|
B|-3---------3-----|1-------0-------|
G|-------0-------0-|----------------|
D|-----0-------0---|----2-------0---|
G|-0-------0-------|0-------0-------|
D|-----------------|----------------|


D|-----------------|----------------|
B|-h1--------1-----|0---------------|
G|-------0-------0-|--------0-------|
D|-h2--2-------2---|----0-------0---|
G|-0-------0-------|0-------0-------|
D|-----------------|----------------|

x2

D|-----------------|----------------|
B|-h3--------3-----|0---------------|
G|-h2----2-------2-|--------0-------|
D|-----0-------0---|----0-------0---|
G|-0-------0-------|0-------0-------|
D|-----------------|----------------|


D|-----------------|----------------|
B|-h1--------1-----|0---------------|
G|-------0-------0-|--------0-------|
D|-h2--2-------2---|----0-------0---|
G|-0-------0-------|0-------0-------|
D|-----------------|----------------|

D|-----------------|
B|-h3--------3-----|
G|-h2----2-------2-|
D|-----0-------0---|
G|-0-------0-------|
D|-----------------|

D|-----------------|----------------|
B|-----0-----0-----|----0-----0-----|
G|-----0-----0-----|----0-----0-----|
D|-----0-------2p0-|----0-------2p0-|
G|-0-------0-------|0-------0-------|
D|-----------------|----------------|

x 4

D ----------------|----------------|
B ----0-----0-----|----0-----0-----|
G ----0-----0-----|----0-----0-----|
D ----0-------2p0-|----0-------2p0-|
G 0-------0-------|0-------0-------|
D ----------------|----------------|

Repeat as per the song

D|---9---|
B|-----8-|
G|-------|
D|-------|
G|-0-----|
D|-------|

For the end.

Lyrics:

Well I worked all summer couldn't save a cent
I gave all my money to the government
I don't know quite how it got spent
but the banks are coming for my deed though
Man at the mill can't see though
Let me get my feed for free though
Ain't that the way it is

I cut out down a braver road
I traded my stock for a V84
Danced for town down on the floor boards
And the title owed down to me though
That gasoline ain't free through
Just guzzling out my knee bone?
Ain't that the way it is

Well i met me a woman down in Saint Paul
with a little money and a little pole
Bloke told me that he'd bust my jaw
I talked to his sister again though
Don't mean I couldn't win though
There's blood running down my chin now
Ain't that the way it is

Well I slept all night on the bar room floor
and woke up this morning my head was sore
Pockets empty but I want some more
The bar man's got my car though
Tales worth more by far though
As I leave her down at the bar now
Ain't that the way it is

Well I hitched me a ride on the way back home
I got me a job on a family farm
Times are hard here but I can't roll?
and I ain't got nothing more
Oh that company store
Gold's looking good for sure though
Ain't that the way it is

Well I worked all summer couldn't save a cent
I gave all my money to the government
I don't know quite how it got spent
but the banks are coming for my deed though
Man at the mill can't see though
Let me get my feed for free though
Ain't that the way it is

            
            
Suggest correction
Creating personal tab
Creating personal tab
You can edit any tab online and save it as your Personal.

You can edit, replace or remove any tab part or add personal notes – all changes will be seen only by you.

Personal tabs can be accessed anytime from any device, even offline.
Learn more »
comments
print report bad tab
4 comments total. Showing first comments.
0 reply
jessew7 10 Jul 23, 2016 10:17 PM

This tab is awesome! Any chance you could do Jesus at the Kenmore?

0 reply
waystoid 10 Aug 25, 2017 07:35 PM

*traded my stock for a v8 ford
*clutch wearing out my knee boy
*replace "though" with "boy"

0 reply
waystoid 10 Aug 25, 2017 07:35 PM

brother instead of bloke

guest
Wanna post a correction for this tab? Suggest correction