Oops, an error
Loading. Please wait.

Attention bass

version 4
version 4

Whole song

Interactive

790 views 24 this week
no commentswrite comment
1 2 3 4 5
x 3
add to favorites
×
Save as Personal and add changes to this tab that will be seen only by you. Learn more ›
×
You can save this tab as Personal to edit and correct it or add notes. All changes will be seen only by you. Learn more »
launch autoscroll
font size
0
reset
guitar tuner
edit
Autoscroll
slow
fast
+/-
esc
set tempo
stop
Charlie Puth, Jacob Kasher
Lyrics: Charlie Puth
Copyright: © 2017 Atlantic
Tempo = 100

[Intro] (0:00)
G|-------|
D|-------|
A|---R---| (x4)
E|-------|
B|-------|
     W

[Verse 1] 
(0:09)
G|-------|
D|-------|
A|---R---| (x8)
E|-------|
B|-------|
     W

[Pre-Chorus] 
(0:29)
G|-------|
D|-------|
A|---R---| (x8)
E|-------|
B|-------|
     W

[Chorus] 
(0:47)
G|-------------------------------------------------|---------------------------------------------------|
D|-------------------------------------------------|---------------------------------------------------|
A|----------6--------4h-6--------------4h-6--------|----------4--------2h-4--------2h-4--4-----2-------|
E|-------------------------------------------------|---------------------------------------------------|
B|--4----------------------------4-----------------|--2------------------------------------------------|
    E.      S   E    S  S    E   E     S  E.          E.      S   E    S  S    E   S  S  E     E

G|----------3--------1h-3--------3-----------------|-----------4--------3h-4--------4-----------6------|
D|-------------------------------------------4-----|---------------------------------------------------|
A|--1----------------------1-----------------------|--2-----------------------2-----------4------------|
E|-------------------------------------2-----------|---------------------------------------------------|
B|-------------------------------------------------|---------------------------------------------------|
    E.      S   E    S  S   E     E     E     E          E.      S   E    S  S   E     E     E     E   

G|-------------------------------------------------|---------------------------------------------------|
D|-------------------------------------------------|---------------------------------------------------|
A|----------6--------4h-6--------------4h-6--------|----------4--------2h-4--------2h-4--4-----2-------|
E|-------------------------------------------------|---------------------------------------------------|
B|--4----------------------------4-----------------|--2------------------------------------------------|
    E.      S   E    S  S    E   E     S  E.          E.      S   E    S  S    E   S  S  E     E

G|----------3--------1h-3--------3-----------------|-----------4--------3h-4--------4-----------6------|
D|-------------------------------------------4-----|---------------------------------------------------|
A|--1----------------------1-----------------------|--2-----------------------2-----------4------------|
E|-------------------------------------2-----------|---------------------------------------------------|
B|-------------------------------------------------|---------------------------------------------------|
    E.      S   E    S  S   E     E     E     E          E.      S   E    S  S   E     E     E     E   

[Verse 2] 
(1:07)
G|-------------------------------------------------|---------------------------------------------------|
D|-------------------------------------------------|---------------------------------------------------|
A|----------6--------4h-6--------------4h-6--------|----------4--------2h-4--------2h-4--4-----2-------|
E|-------------------------------------------------|---------------------------------------------------|
B|--4----------------------------4-----------------|--2------------------------------------------------|
    E.      S   E    S  S    E   E     S  E.          E.      S   E    S  S    E   S  S  E     E

G|----------3--------1h-3--------3-----------------|-----------4--------3h-4--------4-----------6------|
D|-------------------------------------------4-----|---------------------------------------------------|
A|--1----------------------1-----------------------|--2-----------------------2-----------4------------|
E|-------------------------------------2-----------|---------------------------------------------------|
B|-------------------------------------------------|---------------------------------------------------|
    E.     S   E    S  S   E     E     E     E        E.      S   E    S  S   E     E     E     E   

G|-------------------------------------------------|---------------------------------------------------|
D|-------------------------------------------------|---------------------------------------------------|
A|----------6--------4h-6--------------4h-6--------|----------4--------2h-4--------2h-4--4-----2-------|
E|-------------------------------------------------|---------------------------------------------------|
B|--4----------------------------4-----------------|--2------------------------------------------------|
    E.      S   E    S  S    E   E     S  E.          E.      S   E    S  S    E   S  S  E     E

G|----------3--------1h-3--------3-----------------|-----------4--------3h-4--------4-----------6------|
D|-------------------------------------------4-----|---------------------------------------------------|
A|--1----------------------1-----------------------|--2-----------------------2-----------4------------|
E|-------------------------------------2-----------|---------------------------------------------------|
B|-------------------------------------------------|---------------------------------------------------|
    E.      S   E    S  S   E     E     E     E          E.      S   E    S  S   E     E     E     E   

[Pre-Chorus] 
(1:26)
G|-------------------------------------------------|---------------------------------------------------|
D|-------------------------------------------------|---------------------------------------------------|
A|----------6--------4h-6--------------4h-6--------|----------4--------2h-4--------2h-4--4-----2-------|
E|-------------------------------------------------|---------------------------------------------------|
B|--4----------------------------4-----------------|--2------------------------------------------------|
    E.      S   E    S  S    E   E     S  E.          E.      S   E    S  S    E   S  S  E     E

G|----------3--------1h-3--------3-----------------|-----------4--------3h-4--------4-----------6------|
D|-------------------------------------------4-----|---------------------------------------------------|
A|--1----------------------1-----------------------|--2-----------------------2-----------4------------|
E|-------------------------------------2-----------|---------------------------------------------------|
B|-------------------------------------------------|---------------------------------------------------|
    E.      S   E    S  S   E     E     E     E          E.      S   E    S  S   E     E     E     E   

G|-------|-------|-------|----------|
D|-------|-------|-------|----------|
A|--6----|--4----|--1----|--2---R---|
E|-------|-------|-------|----------|
B|-------|-------|-------|----------|
    W       W       W       H   H

[Chorus] 
(1:45)
G|-------------------------------------------------|---------------------------------------------------|
D|-------------------------------------------------|---------------------------------------------------|
A|----------6--------4h-6--------------4h-6--------|----------4--------2h-4--------2h-4--4-----2-------|
E|-------------------------------------------------|---------------------------------------------------|
B|--4----------------------------4-----------------|--2------------------------------------------------|
    E.      S   E    S  S    E   E     S  E.          E.      S   E    S  S    E   S  S  E     E

G|----------3--------1h-3--------3-----------------|-----------4--------3h-4--------4-----------6------|
D|-------------------------------------------4-----|---------------------------------------------------|
A|--1----------------------1-----------------------|--2-----------------------2-----------4------------|
E|-------------------------------------2-----------|---------------------------------------------------|
B|-------------------------------------------------|---------------------------------------------------|
    E.      S   E    S  S   E     E     E     E          E.      S   E    S  S   E     E     E     E   

G|-------------------------------------------------|---------------------------------------------------|
D|-------------------------------------------------|---------------------------------------------------|
A|----------6--------4h-6--------------4h-6--------|----------4--------2h-4--------2h-4--4-----2-------|
E|-------------------------------------------------|---------------------------------------------------|
B|--4----------------------------4-----------------|--2------------------------------------------------|
    E.      S   E    S  S    E   E     S  E.          E.      S   E    S  S    E   S  S  E     E

G|----------3--------1h-3--------3-----------------|-----------4--------3h-4--------4-----------6------|
D|-------------------------------------------4-----|---------------------------------------------------|
A|--1----------------------1-----------------------|--2-----------------------2-----------4------------|
E|-------------------------------------2-----------|---------------------------------------------------|
B|-------------------------------------------------|---------------------------------------------------|
    E.      S   E    S  S   E     E     E     E          E.      S   E    S  S   E     E     E     E   

G|-------------------------------------------------|---------------------------------------------------|
D|-------------------------------------------------|---------------------------------------------------|
A|----------6--------4h-6--------------4h-6--------|----------4--------2h-4--------2h-4--4-----2-------|
E|-------------------------------------------------|---------------------------------------------------|
B|--4----------------------------4-----------------|--2------------------------------------------------|
    E.      S   E    S  S    E   E     S  E.          E.      S   E    S  S    E   S  S  E     E

G|----------3--------1h-3--------3-----------------|-----------4--------3h-4--------4-----------6------|
D|-------------------------------------------4-----|---------------------------------------------------|
A|--1----------------------1-----------------------|--2-----------------------2-----------4------------|
E|-------------------------------------2-----------|---------------------------------------------------|
B|-------------------------------------------------|---------------------------------------------------|
    E.      S   E    S  S   E     E     E     E          E.      S   E    S  S   E     E     E     E   

G|-------------------------------------------------|---------------------------------------------------|
D|-------------------------------------------------|---------------------------------------------------|
A|----------6--------4h-6--------------4h-6--------|----------4--------2h-4--------2h-4--4-----2-------|
E|-------------------------------------------------|---------------------------------------------------|
B|--4----------------------------4-----------------|--2------------------------------------------------|
    E.      S   E    S  S    E   E     S  E.          E.      S   E    S  S    E   S  S  E     E

G|----------3--------1h-3--------3-----------------|-----------4--------3h-4--------4-----------6------|
D|-------------------------------------------4-----|---------------------------------------------------|
A|--1----------------------1-----------------------|--2-----------------------2-----------4------------|
E|-------------------------------------2-----------|---------------------------------------------------|
B|-------------------------------------------------|---------------------------------------------------|
    E.      S   E    S  S   E     E     E     E          E.      S   E    S  S   E     E     E     E   

[Pre-Chorus] 
(2:24)
G|-------|
D|-------|
A|---R---| (x9)
E|-------|
B|-------|
     W

[Chorus] 
(2:45)
G|-------------------------------------------------|---------------------------------------------------|
D|-------------------------------------------------|---------------------------------------------------|
A|----------6--------4h-6--------------4h-6--------|----------4--------2h-4--------2h-4--4-----2-------|
E|-------------------------------------------------|---------------------------------------------------|
B|--4----------------------------4-----------------|--2------------------------------------------------|
    E.      S   E    S  S    E   E     S  E.          E.      S   E    S  S    E   S  S  E     E

G|----------3--------1h-3--------3-----------------|-----------4--------3h-4--------4-----------6------|
D|-------------------------------------------4-----|---------------------------------------------------|
A|--1----------------------1-----------------------|--2-----------------------2-----------4------------|
E|-------------------------------------2-----------|---------------------------------------------------|
B|-------------------------------------------------|---------------------------------------------------|
    E.      S   E    S  S   E     E     E     E          E.      S   E    S  S   E     E     E     E   

G|-------------------------------------------------|---------------------------------------------------|
D|-------------------------------------------------|---------------------------------------------------|
A|----------6--------4h-6--------------4h-6--------|----------4--------2h-4--------2h-4--4-----2-------|
E|-------------------------------------------------|---------------------------------------------------|
B|--4----------------------------4-----------------|--2------------------------------------------------|
    E.      S   E    S  S    E   E     S  E.          E.      S   E    S  S    E   S  S  E     E

G|----------3--------1h-3--------3-----------------|-----------4--------3h-4--------4-----------6------|
D|-------------------------------------------4-----|---------------------------------------------------|
A|--1----------------------1-----------------------|--2-----------------------2-----------4------------|
E|-------------------------------------2-----------|---------------------------------------------------|
B|-------------------------------------------------|---------------------------------------------------|
    E.      S   E    S  S   E     E     E     E          E.      S   E    S  S   E     E     E     E   

G|-------------------------------------------------|---------------------------------------------------|
D|-------------------------------------------------|---------------------------------------------------|
A|----------6--------4h-6--------------4h-6--------|----------4--------2h-4--------2h-4--4-----2-------|
E|-------------------------------------------------|---------------------------------------------------|
B|--4----------------------------4-----------------|--2------------------------------------------------|
    E.      S   E    S  S    E   E     S  E.          E.      S   E    S  S    E   S  S  E     E

G|----------3--------1h-3--------3-----------------|-----------4--------3h-4--------4-----------6------|
D|-------------------------------------------4-----|---------------------------------------------------|
A|--1----------------------1-----------------------|--2-----------------------2-----------4------------|
E|-------------------------------------2-----------|---------------------------------------------------|
B|-------------------------------------------------|---------------------------------------------------|
    E.      S   E    S  S   E     E     E     E          E.      S   E    S  S   E     E     E     E   

G|-------------------------------------------------|---------------------------------------------------|
D|-------------------------------------------------|---------------------------------------------------|
A|----------6--------4h-6--------------4h-6--------|----------4--------2h-4--------2h-4--4-----2-------|
E|-------------------------------------------------|---------------------------------------------------|
B|--4----------------------------4-----------------|--2------------------------------------------------|
    E.      S   E    S  S    E   E     S  E.          E.      S   E    S  S    E   S  S  E     E

G|----------3--------1h-3--------3-----------------|-----------4--------3h-4--------4-----------6------|
D|-------------------------------------------4-----|---------------------------------------------------|
A|--1----------------------1-----------------------|--2-----------------------2-----------4------------|
E|-------------------------------------2-----------|---------------------------------------------------|
B|-------------------------------------------------|---------------------------------------------------|
    E.      S   E    S  S   E     E     E     E          E.      S   E    S  S   E     E     E     E   

G|-------|
D|-------|
A|-------|
E|---R---|
B|-------|
     W


************************************

| h - Hammer-on
| W - whole
| H - half
| Q - quarter
| E - 8th
| S - 16th
| R - Rest

************************************

            
            
Suggest correction
Creating personal tab
Creating personal tab
You can edit any tab online and save it as your Personal.

You can edit, replace or remove any tab part or add personal notes – all changes will be seen only by you.

Personal tabs can be accessed anytime from any device, even offline.
Learn more »
Give kudos to tab author, rate the tab!
1 2 3 4 5
comments
print report bad tab
guest
You may want to rate the tab now too:
select rating
Wanna post a correction for this tab? Suggest correction