Oops, an error
Loading. Please wait.

Dangerously Tab

version 1
version 1

Acoustic

  • Fingerstyle arrangement of Charlie Puth's "Dangerously".
  • Acoustic Version. Intro Verse and Chorus and Addit... Show more

Interactive

301 views 111 this week
no commentswrite comment
1 2 3 4 5
3 more votes to show rating
add to favorites
launch autoscroll
font size
0
reset
how to read this tab
guitar tuner
Autoscroll
slow
fast
+/-
esc
set tempo
stop
Help us to improve Ultimate-Guitar.com Take our survey!
×
Author
Capo
3rd fret
About this tab version
Fingerstyle arrangement of Charlie Puth's "Dangerously". Was this info helpful? Yes No
============================
 Charlie Puth - Dangerously
============================
Tuning: standard
Capo: 3

Time Signature: 6/8
BPM: 112

Let ring throughout

[Intro]

e|------------------|------------------|------------------|
B|-1--------------1-|-0--------------0-|------------------|
G|-2--2-------------|----0-------------|-2----------------|
D|-2-----2-----2----|-------0-----0----|----3-----------3-|
A|-0--------0-------|------------------|-------3-----3----|
E|------------------|-0--------0-------|-1--------1-------|

e|------------------|-0----------------|----------3-------|
B|-------------0--1-|----------------1-|-3----------------|
G|----------2-------|----2-------------|-------0--------0-|
D|-------3----------|-------2-----2----|----0--------0----|
A|----3-------------|-0--------0-------|------------------|
E|-1----------------|------------------|-3--------3-------|

e|------------------|------------------|
B|-0--1--0----------|-------------0--1-|
G|----------2-------|----------2-------|
D|-------3--------3-|-------3----------|
A|----3--------3----|----3-------------|
E|-1--------1-------|-1----------------|


[Verse]

e|------------------|------------------|------------------|
B|-1-1-1--1---------|-0--0--0--0-------|------------------|
G|-2------2-----2-2-|----------0-----0-|----2--2--2-----0-|
D|-----2-----2------|-------2----------|-------3--------3-|
A|-0----------------|----2--------2----|----3--------3----|
E|------------------|-0----------------|-1----------------|

e|------------------|-------------------|------------------|
B|------------------|-1--1-1-1--3-----1-|-0--0--0--1-------|
G|-0--------------0-|--------2--------2-|----------0-----0-|
D|----2--------0----|----2---------2----|-------2----------|
A|----3-------------|-0---------0-------|----2--------2----|
E|-1-----1--3-------|-------------------|-0----------------|

e|------------------|------------------|-0----------------|
B|------------------|----1-------------|----3--1----------|
G|----2--2--2-----0-|-2-----------2--2-|-------2-----2--2-|
D|-------3--------3-|-------------0----|----2--------2----|
A|----3--------3----|----3-------------|-0--------0-------|
E|-1----------------|-1-----1--3-------|------------------|

e|-0--------1-------|------------------|------------------|
B|----3--1--------0-|------------------|------------------|
G|-------0--------0-|-2-----0--0-------|-------------2--2-|
D|----2--------2----|-------3-----3----|-------3-----0----|
A|------------------|----3-----------3-|----3-------------|
E|-0--------0-------|-1----------------|-1--------3-------|

e|-0----------------|-0--------1-----0-|------------------|
B|----3--1----------|----3--1----------|------------------|
G|-------2-----2--2-|-------0--------0-|-2-----0--0-------|
D|----2--------2----|----2--------2----|-------3----------|
A|-0--------0-------|------------------|----3-------------|
E|------------------|-0--------0-------|-1----------------|


[Chorus]

e|----0-----0-------|----------0-----0-|-3--------5--3--5/8-|
B|-5-----5-----3--1-|-1-----------3----|----------0---------|
G|------------------|----2-------------|-------0------------|
D|------------------|-------3----------|----2---------------|
A|------------------|-x----------------|-3------------------|
E|------------------|-1--------x-------|-x--------x---------|

e|-8--------8-------|-0--0--0--0-------|----------0-----0-|
B|----------0-------|-------------3--1-|-1-----------3----|
G|-------0--0-----0-|------------------|----2-------------|
D|----0--------0----|------------------|-------3----------|
A|-x----------------|------------------|-x----------------|
E|-3--------x-------|-3---------0------|-1--------x-------|

e|-3--------5--3--5/8-|-8--------8-------|-0--0--0--0-------|
B|----------0---------|----------0-------|-------------3--1-|
G|-------0------------|-------0--0-----0-|------------------|
D|----2---------------|----0--------0----|------------------|
A|-3------------------|-x----------------|------------------|
E|-x--------x---------|-3--------x-------|-3--------0-------|

e|-3-----1-----1--0-|-0----------------|-3-----1-----1--0-|
B|-------1-----1--1-|-------3-----3--1-|-0-----0----------|
G|-------2----------|-------0-----0--0-|-------0----------|
D|----3-------------|----2-------------|----0-------------|
A|-x----------------|-3----------------|-x----------------|
E|-1--------x-------|-x--------x-------|-3--------x-------|

e|-0----------------|----------0-----0-|-3--------5--3--5/8-|
B|-------3-----3--1-|-1-----------3----|----------0---------|
G|-------2----------|----2-------------|-------0------------|
D|----2-------------|-------3----------|----2---------------|
A|-0----------------|-x----------------|-3------------------|
E|-x--------x-------|-1--------x-------|-x--------x---------|

e|-8--------8-------|-0--0--0--0-------|
B|-------0--------0-|-------------3--1-|
G|------------------|------------------|
D|----6--------6----|------------------|
A|-x--------x-------|------------------|
E|-0--------0-------|------------------|


[Post-Chorus]

e|------------------|------------------|------------------|
B|-1----------------|-0----------------|-1----------------|
G|----2-----------1-|----0-----------3-|----2-----------2-|
D|-------2-----2----|-------0-----0----|-------3-----3----|
A|-0--------0-------|----------0-------|------------------|
E|------------------|-0----------------|-1--------1-------|

e|-0--0--0-/5--5p3----|----------------0-|----------3-------|
B|------------------3-|-1----------------|-3----------------|
G|--------------------|----2-----------2-|----0-----------0-|
D|--------------------|-------2-----2----|-------0-----0----|
A|--------------------|-0--------0-------|------------------|
E|--------------------|------------------|-0--------0-------|

e|------------------|------------------|
B|-0--1--0----------|-------------0--1-|
G|----------2-------|----------2-------|
D|-------3--------3-|-------3----------|
A|----3--------3----|----3-------------|
E|-1--------1-------|-1----------------|


[Verse]

e|------------------|------------------|------------------|
B|-1-1-1--1---------|-0--0--0--0-------|------------------|
G|-2------2-----2-2-|----------0-----0-|----2--2--2-----0-|
D|-----2-----2------|-------2----------|-------3--------3-|
A|-0----------------|----2--------2----|----3--------3----|
E|------------------|-0----------------|-1----------------|

e|------------------|-------------------|------------------|
B|------------------|-1--1-1-1--3-----1-|-0--0--0--1-------|
G|-0--------------0-|--------2--------2-|----------0-----0-|
D|----2--------0----|----2---------2----|-------2----------|
A|----3-------------|-0---------0-------|----2--------2----|
E|-1-----1--3-------|-------------------|-0----------------|

e|------------------|------------------|-0----------------|
B|------------------|----1-------------|----3--1----------|
G|----2--2--2-----0-|-2-----------2--2-|-------2-----2--2-|
D|-------3--------3-|-------------0----|----2--------2----|
A|----3--------3----|----3-------------|-0--------0-------|
E|-1----------------|-1-----1--3-------|------------------|

e|-0--------1-------|------------------|------------------|
B|----3--1--------0-|------------------|------------------|
G|-------0--------0-|-2-----0--0-------|-------------2--2-|
D|----2--------2----|-------3-----3----|-------3-----0----|
A|------------------|----3-----------3-|----3-------------|
E|-0--------0-------|-1----------------|-1--------3-------|

e|-0----------------|-0--------1-----0-|------------------|
B|----3--1----------|----3--1----------|------------------|
G|-------2-----2--2-|-------0--------0-|-2-----0--0-------|
D|----2--------2----|----2--------2----|-------3----------|
A|-0--------0-------|------------------|----3-------------|
E|------------------|-0--------0-------|-1----------------|


[Chorus]

e|----0-----0-------|----------0-----0-|-3--------5--3--5/8-|
B|-5-----5-----3--1-|-1-----------3----|----------0---------|
G|------------------|----2-------------|-------0------------|
D|------------------|-------3----------|----2---------------|
A|------------------|-x----------------|-3------------------|
E|------------------|-1--------x-------|-x--------x---------|

e|-8--------8-------|-0--0--0--0-------|----------0-----0-|
B|----------0-------|-------------3--1-|-1-----------3----|
G|-------0--0-----0-|------------------|----2-------------|
D|----0--------0----|------------------|-------3----------|
A|-x----------------|------------------|-x----------------|
E|-3--------x-------|-3---------0------|-1--------x-------|

e|-3--------5--3--5/8-|-8--------8-------|-0--0--0--0-------|
B|----------0---------|----------0-------|-------------3--1-|
G|-------0------------|-------0--0-----0-|------------------|
D|----2---------------|----0--------0----|------------------|
A|-3------------------|-x----------------|------------------|
E|-x--------x---------|-3--------x-------|-3--------0-------|

e|-3-----1-----1--0-|-0----------------|-3-----1-----1--0-|
B|-------1-----1--1-|-------3-----3--1-|-0-----0----------|
G|-------2----------|-------0-----0--0-|-------0----------|
D|----3-------------|----2-------------|----0-------------|
A|-x----------------|-3----------------|-x----------------|
E|-1--------x-------|-x--------x-------|-3--------x-------|

e|-0----------------|----------0-----0-|-3--------5--3--5/8-|
B|-------3-----3--1-|-1-----------3----|----------0---------|
G|-------2----------|----2-------------|-------0------------|
D|----2-------------|-------3----------|----2---------------|
A|-0----------------|-x----------------|-3------------------|
E|-x--------x-------|-1--------x-------|-x--------x---------|

e|-8--------8-------|-0--0--0--0-------|
B|-------0--------0-|-------------3--1-|
G|------------------|------------------|
D|----6--------6----|------------------|
A|-x--------x-------|------------------|
E|-0--------0-------|------------------|


[Bridge]

e|----------0--3--5-|-3--------1-------|-0----------------|
B|-1-----1----------|-------1--------1-|----1-------------|
G|----2-------------|----2--------2----|-------2--------2-|
D|-0----------------|-0----------------|----2--------2----|
A|------------------|------------------|-0--------0-------|
E|------------------|------------------|------------------|

e|----------------0-|----------0--3--5-|-3--------1-------|
B|-1--3--1--3--3----|-1----------------|------------------|
G|-------0--------0-|----2-------------|-------2--------2-|
D|----0--------0----|-------3----------|----3--------3----|
A|------------------|------------------|------------------|
E|-3--------3-------|-1--------1-------|-1--------1-------|

e|------------------|----------------0-|----------0-------|
B|-3--1-------------|-3--3--1--3--1----|-1----------------|
G|-------0--------0-|-------0--------0-|----2-------------|
D|----2--------2----|----0--------0----|-------3--------3-|
A|-3--------3-------|------------------|----3--------3----|
E|------------------|-3--------3-------|-1--------1-------|

e|----------1-------|-0----------------|-0--0--0--0-------|
B|------------------|----3-----------1-|-------------3--1-|
G|-2----------------|-------2--------2-|-------0--------0-|
D|-------3--------3-|----2--------2----|----0--------0----|
A|----3--------3----|-0--------0-------|------------------|
E|-1--------1-------|------------------|-3--------3-------|

e|------------------|-0--------0-------|-0--------0-------|
B|-3----------------|----3--1----------|----3--0----------|
G|-------2--------2-|------------------|----1-----------2-|
D|-------3--------3-|-------3--------3-|-------2--------2-|
A|----3--------3----|----3--------3----|----2--------2----|
E|-1--------1-------|-1--------1-------|-0--------0-------|

e|-------------0----|----0--------0--5-|
B|----------5-----5-|-5-----5--5-------|
G|-1----------------|------------------|
D|-2----------------|------------------|
A|-2----------------|------------------|
E|-0----------------|-x--------x-------|


[Chorus]

e|----0-----0-------|----------0-----0-|-3--------5--3--5/8-|
B|-5-----5-----3--1-|-1-----------3----|----------0---------|
G|------------------|----2-------------|-------0------------|
D|------------------|-------3----------|----2---------------|
A|------------------|-x----------------|-3------------------|
E|------------------|-1--------x-------|-x--------x---------|

e|-8--------8-------|-0--0--0--0-------|----------0-----0-|
B|----------0-------|-------------3--1-|-1-----------3----|
G|-------0--0-----0-|------------------|----2-------------|
D|----0--------0----|------------------|-------3----------|
A|-x----------------|------------------|-x----------------|
E|-3--------x-------|-3---------0------|-1--------x-------|

e|-3--------5--3--5/8-|-8--------8-------|-0--0--0--0-------|
B|----------0---------|----------0-------|-------------3--1-|
G|-------0------------|-------0--0-----0-|------------------|
D|----2---------------|----0--------0----|------------------|
A|-3------------------|-x----------------|------------------|
E|-x--------x---------|-3--------x-------|-3--------0-------|

e|-3-----1-----1--0-|-0----------------|-3-----1-----1--0-|
B|-------1-----1--1-|-------3-----3--1-|-0-----0----------|
G|-------2----------|-------0-----0--0-|-------0----------|
D|----3-------------|----2-------------|----0-------------|
A|-x----------------|-3----------------|-x----------------|
E|-1--------x-------|-x--------x-------|-3--------x-------|

e|-0----------------|----------0-----0-|-3--------5--3--5/8-|
B|-------3-----3--1-|-1-----------3----|----------0---------|
G|-------2----------|----2-------------|-------0------------|
D|----2-------------|-------3----------|----2---------------|
A|-0----------------|-x----------------|-3------------------|
E|-x--------x-------|-1--------x-------|-x--------x---------|

e|-8--------8-------|-0--0--0--0-------|
B|-------0--------0-|-------------3--1-|
G|------------------|------------------|
D|----6--------6----|------------------|
A|-x--------x-------|------------------|
E|-0--------0-------|------------------|


[Outro]

e|------------------|------------------|------------------|
B|-1----------------|-0----------------|-1----------------|
G|----2-----------1-|----0-----------3-|----2-----------2-|
D|-------2-----2----|-------0-----0----|-------3-----3----|
A|-0--------0-------|----------0-------|------------------|
E|------------------|-0----------------|-1--------1-------|

e|-0--0--0-/5--5p3----|----------------0-|----------3-------|
B|------------------3-|-1----------------|-3----------------|
G|--------------------|----2-----------2-|----0-----------0-|
D|--------------------|-------2-----2----|-------0-----0----|
A|--------------------|-0--------0-------|------------------|
E|--------------------|------------------|-0--------0-------|

e|------------------|-0--0--0--0-------|------------------|
B|-0--1--0----------|-------------3--1-|------------------|
G|----------2-------|------------------|-2----------------|
D|-------3--------3-|------------------|-2----------------|
A|----3--------3----|------------------|-0----------------|
E|-1--------1-------|-1----------------|------------------|

________________________
x - Dead note
p - Pull-off
/ - Slide up
Suggest correction
Give kudos to tab author, rate the tab!
1 2 3 4 5
comments
print report bad tab
guest
You may want to rate the tab now too:
select rating
Wanna post a correction for this tab? Suggest correction