Oops, an error
Loading. Please wait.

Dangerously Tab

version 2
version 2

Acoustic

  • Fingerstyle arrangement of Charlie Puth's "Dangerously".
  • Acoustic Version. Intro Verse and Chorus and Addit... Show more

Interactive

169 views 81 this week
no commentswrite comment
1 2 3 4 5
3 more votes to show rating
add to favorites
launch autoscroll
font size
0
reset
how to read this tab
guitar tuner
Autoscroll
slow
fast
+/-
esc
set tempo
stop
Help us to improve Ultimate-Guitar.com Take our survey!
×
Author
About this tab version
Acoustic Version. Intro Verse and Chorus and Additional Voice Track a second Guitar or Singer can Cover for the Chorus. Was this info helpful? Yes No
Dangerously                  

                                 Charlie Puth
Guitar
Standard Tuning


[Intro]

     Dm                 
     E  E  E  E  E  E   
e|--1--------------1--|
B|-----3--------3-----|
G|--------2--2--------|
D|--0-----------------|
A|--------------------|
E|--------------------|


    Am7                   Bb              
    E   E  E  E  E  E     E  E  H         
e|--0---------------0--|-----------------|
B|------1--------1-----|--3--------------|
G|---------0--0--------|-----3-----------|
D|---------------------|--------3--------|
A|--0------------------|--1--------------|
E|---------------------|-----------------|


    Q.     E  E  E     E  E  E  E  E  E   
e|---------------0--|--1--------------1--|
B|------------3-----|-----3--------3-----|
G|---------3--------|--------2--2--------|
D|--L---------------|--0-----------------|
A|--L---------------|--------------------|
E|------------------|--------------------|


    E  E  E  E  E  E     E  E  H         
e|--0--------------0--|-----------------|
B|-----1--------1-----|--3--------------|
G|--------0--0--------|-----3-----------|
D|--------------------|--------3--------|
A|--0-----------------|--1--------------|
E|--------------------|-----------------|


[Verse]

  Dm                         
    E   E    E   E   E    E    
e|--1--(1)--(1)--1--(1)--(1)--|
B|----------------------------|
G|----------------------------|
D|--0--(0)--(0)--0--(0)--(0)--|
A|----------------------------|
E|----------------------------|


    Am7                         
    E    E    E   E   E    E    
e|--0---(0)--(0)--0--(0)--(0)--|
B|-----------------------------|
G|-----------------------------|
D|-----------------------------|
A|--0---(0)--(0)--0--(0)--(0)--|
E|-----------------------------|


    Bb                         
    E   E    E   E   E    E    
e|----------------------------|
B|--3--(3)--(3)--3--(3)--(3)--|
G|----------------------------|
D|----------------------------|
A|--1--(1)--(1)--1--(1)--(1)--|
E|----------------------------|


    E   E    E   E   E    E    
e|----------------------------|
B|--3--(3)--(3)--3--(3)--(3)--|
G|----------------------------|
D|----------------------------|
A|--1--(1)--(1)--1--(1)--(1)--|
E|----------------------------|


    E   E    E   E   E    E    
e|--1--(1)--(1)--1--(1)--(1)--|
B|----------------------------|
G|----------------------------|
D|--0--(0)--(0)--0--(0)--(0)--|
A|----------------------------|
E|----------------------------|


    E   E    E   E   E    E      W            
e|--0--(0)--(0)--0--(0)--(0)--|---------------|
B|----------------------------|--3------------|
G|----------------------------|---------------|
D|----------------------------|---------------|
A|--0--(0)--(0)--0--(0)--(0)--|--1------------|
E|----------------------------|---------------|

[Chorus]

 Bb                
                                   
    Q    E  E  E  E   
e|-------------------|
B|--3----3--3--3--3--|
G|--3----3--3--3--3--|
D|--3----3--3--3--3--|
A|--1----1--1--1--1--|
E|-------------------|


    F                   C                 
    ^                   ^                 
    Q    E  E  E  E     Q    E  E  E  E   
e|-------------------|--0----0--0--0--0--|
B|--1----1--1--1--1--|--1----1--1--1--1--|
G|--2----2--2--2--2--|--0----0--0--0--0--|
D|--3----3--3--3--3--|--2----2--2--2--2--|
A|--3----3--3--3--3--|--3----3--3--3--3--|
E|-------------------|-------------------|


    Dm     C         Bb                
    ^      ^         ^                 
    Q.     Q.        Q    E  E  E  E   
e|--1------0------|-------------------|
B|--3------1------|--3----3--3--3--3--|
G|--2------0------|--3----3--3--3--3--|
D|--0------2------|--3----3--3--3--3--|
A|---------3------|--1----1--1--1--1--|
E|----------------|-------------------|


    F                   A7                
    ^                   ^                 
    Q    E  E  E  E     Q    E  E  E  E   
e|-------------------|--0----0--0--0--0--|
B|--1----1--1--1--1--|--2----2--2--2--2--|
G|--2----2--2--2--2--|--0----0--0--0--0--|
D|--3----3--3--3--3--|--2----2--2--2--2--|
A|--3----3--3--3--3--|--0----0--0--0--0--|
E|-------------------|-------------------|


    A7                  Bb                
                        ^                 
    Q    E  E  E  E     Q    E  E  E  E   
e|--0----0--0--0--0--|-------------------|
B|--2----2--2--2--2--|--3----3--3--3--3--|
G|--0----0--0--0--0--|--3----3--3--3--3--|
D|--2----2--2--2--2--|--3----3--3--3--3--|
A|--0----0--0--0--0--|--1----1--1--1--1--|
E|-------------------|-------------------|


    F                   C                 
    ^                   ^                 
    Q    E  E  E  E     Q    E  E  E  E   
e|-------------------|--0----0--0--0--0--|
B|--1----1--1--1--1--|--1----1--1--1--1--|
G|--2----2--2--2--2--|--0----0--0--0--0--|
D|--3----3--3--3--3--|--2----2--2--2--2--|
A|--3----3--3--3--3--|--3----3--3--3--3--|
E|-------------------|-------------------|


    Dm     C         Bb                
    ^      ^         ^                 
    Q.     Q.        Q    E  E  E  E   
e|--1------0------|-------------------|
B|--3------1------|--3----3--3--3--3--|
G|--2------0------|--3----3--3--3--3--|
D|--0------2------|--3----3--3--3--3--|
A|---------3------|--1----1--1--1--1--|
E|----------------|-------------------|


    F                   A7            
    ^                   ^             
    Q    E  E  E  E     H.            
e|-------------------|--0------------|
B|--1----1--1--1--1--|--2------------|
G|--2----2--2--2--2--|--0------------|
D|--3----3--3--3--3--|--2------------|
A|--3----3--3--3--3--|--0------------|
E|-------------------|---------------|


    H.                            
e|--L------------|---------------|
B|--L------------|---------------|
G|--L------------|---------------|
D|--L------------|---------------|
A|--L------------|---------------|
E|---------------|---------------|

Chorus Voice Melody


    E  E  E  E  E  E     Q.     E  E  E   
e|--5--5--5--5--3--1--|--1------5--3--5--|
B|--------------------|------------------|
G|--------------------|------------------|
D|--------------------|------------------|
A|--------------------|------------------|
E|--------------------|------------------|


    Q.      E  E   E      H.            
e|--8------10--8--10--|--13------------|
B|--------------------|----------------|
G|--------------------|----------------|
D|--------------------|----------------|
A|--------------------|----------------|
E|--------------------|----------------|


    E  E  E  E  E  E     Q.     E  E  E   
e|--5--5--5--5--3--1--|--1------5--3--5--|
B|--------------------|------------------|
G|--------------------|------------------|
D|--------------------|------------------|
A|--------------------|------------------|
E|--------------------|------------------|


    Q.      E  E   E      H.            
e|--8------10--8--10--|--13------------|
B|--------------------|----------------|
G|--------------------|----------------|
D|--------------------|----------------|
A|--------------------|----------------|
E|--------------------|----------------|


    E  E  E  E  E  E     Q    Q    E  E   
e|--5--5--5--5--3--1--|--8----6----6--5--|
B|--------------------|------------------|
G|--------------------|------------------|
D|--------------------|------------------|
A|--------------------|------------------|
E|--------------------|------------------|


    Q    Q.     E     Q    Q    E  E   
e|--5----3------1--|--8----6----6--5--|
B|-----------------|------------------|
G|-----------------|------------------|
D|-----------------|------------------|
A|-----------------|------------------|
E|-----------------|------------------|


    Q    Q.     E     Q.     E  E  E   
e|--5----3------1--|---------5--3--5--|
B|-----------------|--3---------------|
G|-----------------|------------------|
D|-----------------|------------------|
A|-----------------|------------------|
E|-----------------|------------------|


    Q.      E  E   E      H.             
e|--8------10--8--10--|--13------------||
B|--------------------|----------------||
G|--------------------|----------------||
D|--------------------|----------------||
A|--------------------|----------------||
E|--------------------|----------------||




Duration Legend
---------------
W - whole
H - half
Q - quarter
E - 8th
S - 16th
T - 32nd
X - 64th
. - note dotted
|-n-|  - n-tuplets


Tablature Legend
----------------

(n) - ghost note

[Intro]
Oh, oh, oh

[Verse 1]
This is gonna hurt but I blame myself first, cause I ignored the truth
Drunk off that love, my head up, there’s no forgetting you

[Pre-Chorus]
You’ve awoken me, but you’re choking me, I was so obsessed
Gave you all of me, and now honestly I’ve got nothing left

[Chorus]
I loved you dangerously-y-y-y-y-y-y-y-y
More than the air that I breathe-e-e-e-e-e-e-e-e
Knew we would crash at the speed that we were going
Didn’t care if the explosion ruined me-e-e-e-e-e-e-e-e
Baby I loved you dangerously
Mmmm, mmm, mmmm
I loved you dangerously-y-woah

[Verse 2]
Usually I hold the power with both my hands tied behind my back
Look at how things change, cause now you’re the train, and I’m tied to the track

[Pre-Chorus]
You’ve awoken me, but you’re choking me, I was so obsessed
Gave you all of me, and now honestly I’ve got nothing left

[Chorus]
I loved you dangerously-y-y-y-y-y-y-y-y
More than the air that I breathe-e-e-e-e-e-e-e-e
Knew we would crash at the speed that we were going
Didn’t care if the explosion ruined me-e-e-e-e-e-e-e-e
Baby I loved you dangerously

[Bridge]
You took me down, down, down, down
And kissed my lips quick goodbye
I see you now, now, now, now
It was a matter of time
You know I know, there’s only one place this could lead
But you are the fire, I’m gasoline

[Chorus 2]
I love you, I love you, I love you, I loved you dangerously-y-y-y-y-y-y-y-y
More than the air that I breathe-e-e-e-e-e-e-e-e
Oh now, I knew we would crash at the speed that we were going
Didn’t care if the explosion ruined me-e-e-e-e-e-e-e-e
Oh, oh baby I loved you dangerously

[Outro]
Mmmm, mmm
Oh, I loved you dangerously
Oh, oh, I loved you dangerously
Suggest correction
Give kudos to tab author, rate the tab!
1 2 3 4 5
comments
print report bad tab
guest
You may want to rate the tab now too:
select rating
Wanna post a correction for this tab? Suggest correction