Oops, an error
Loading. Please wait.
We have Chord Pro version of Dangerously.
It's the closest thing you can get to the original song and it has interactive parts. Check out the tab »
×

Dangerously Acoustic tab

version 3
version 3

Whole song

  • Fingerstyle arrangement of Charlie Puth's "Dangerously".
  • Acoustic Version. Intro Verse and Chorus and Addit... Show more
  • Full fingerstyle arrangement by Andrew Foy.

Interactive

Video

406 views 57 this week
no commentswrite comment
1 2 3 4 5
x 3
add to favorites
×
Save as Personal and add changes to this tab that will be seen only by you. Learn more ›
×
You can save this tab as Personal to edit and correct it or add notes. All changes will be seen only by you. Learn more »
launch autoscroll
font size
0
reset
how to read this tab
guitar tuner
edit
Autoscroll
slow
fast
+/-
esc
set tempo
stop
About this tab version
Full fingerstyle arrangement by Andrew Foy. Was this info helpful? Yes No
https://www.youtube.com/watch?v=CC291ZeubHo

[Intro]

e|--8------------8--7---------7--5---------5--5---------5--7-----------------|
B|----10------10------8-----8------6-----6-------6---------------------------|
G|-------9--------------7------------5-------------5-------------------------|
D|--7-------7-------5-----5------3-----3------3------3-----------------------|
A|---------------------------------------------------------------------------|
E|---------------------------------------------------------------------------|

e|--8------------8--7---------7--5---------5--5------------------------------|
B|----10------10------8-----8------6-----6-------6---------------------------|
G|-------9--------------7------------5-------------5-------------------------|
D|--7-------7-------5-----5------3-----3------3------3-----------------------|
A|---------------------------------------------------------------------------|
E|---------------------------------------------------------------------------|

[Verse]

e|---------------------------------------------------------------------------|
B|--1-1-1-1-1-------0-0-0-0-------------------------------------0--0h1-1-1---|
G|----------2---2---------------0------2p0-2p0-0-0----------0h2----0h2-------|
D|------------2---------------0----------------------2-----------------------|
A|--0--------------------------------------------------3---------------------|
E|------------------0---------------1------------1-------1---------0---------|

e|---------------------------------------------------------------------------|
B|-1h3p1---0-0-0-0h1p0----------------------1--------------------------------|
G|-2-----2-------0-----0-----2p0-2p0-0-0h2----------2-2----------------------|
D|---------------------------------------------------------------------------|
A|---------------------------------------------3-----------------------------|
E|---------0---------------1-----------1---------1---------------------------|

[Pre-Chorus]

e|-0--------------------0h1-0------------------------------0-----------------|
B|-1--3-1--------0-3-1-------------------------------------1-3-1--------0-3--|
G|-2----2---2-2--0---0---------0h2--0-0----------0----2-2--2-2-2---2-2--0-0--|
D|--------2------------------------------2-----2-------------------2-2--0-0--|
A|-0-------------------------------------------------------0-0-0-0-0-0-------|
E|---------------0------0------1------1-----1-------1-------------------0-0--|

e|---0h1----0----------------------------------------------------------------|
B|-1-------------------------------------------------------------------------|
G|-0-----------0h2----0-0----------------------------------------------------|
D|-0------------------------2------------------------------------------------|
A|---------------------------------------------------------------------------|
E|-0-0----0-0--1----1-1-1-1-1------------------------------------------------|

[Chorus]

e|------------------------0---0---0h3------3/5-3-5/8--8-----8------0-0-0------|
B|-3/5-5-5-3/5\3-1-1--------3-----1-----------------------0---0----1----------|
G|-----------------2-2------------0------0--------------0-------0--0----------|
D|-----------------3---3---------------2--------------------------------------|
A|--------------------------------3--------------------------------0----------|
E|-----------------1----------------------------------3-----------------------|

e|-0----------------0---0--0h3-------3/5-3-5/8--8-8-8-8-8-8-0-----------------|
B|-1-3-1-1h3p1--------3----1--------------------5-5-5-5-5-5---3/5-5-5-5/3-1---|
G|-0------------2----------0-------0------------4-4-4-4-4-4-------------------|
D|-------3--------3--------------2--------------------------------------------|
A|-------------------------3--------------------------------------------------|
E|-3--------------------------------------------0-0-0-0-0-0-------------------|

e|--3--1---1-0--0----------3----1-----1-0-0------------------------0---0--0h3-|
B|--1-----------1-3---1----1--------------1---3-----3-1--1h3p1-------3----1---|
G|--2-----------0----------0--------------2--------------------2----------0---|
D|--3-----------2--------0---0--------------2------------3-------3--------2---|
A|--1-----------3---3---------------------0-------------------------------3---|
E|--1-----1----------------3-------3-------------3----------------------------|

e|----3/5-3-5/8--8-8-8-8-8-8--------------------------------------------------|
B|---------------5-5-5-5-5-5--------------------------------------------------|
G|---------------4-4-4-4-4-4--7/9-9-9-7h9p7-----------------------------------|
D|--2----------------------------------------10-------------------------------|
A|----------------------------------------------------------------------------|
E|---------------0-0-0-0-0-0--------------------------------------------------|

e|--8------------8--7---------7--5---------5----------------------------------|
B|----10------10------8-----8------6-----6------------------------------------|
G|-------9--------------7------------5----------------------------------------|
D|--7-------7-------5-----5------3-----3--------------------------------------|
A|----------------------------------------------------------------------------|
E|----------------------------------------------------------------------------|

e|-0-0-0-3/5\3p0--------------------------------------------------------------|
B|---------------3/5\3p1-----1-0-----3/5----0-1----------1--1------1----------|
G|-----------------------2-------0------------2--2-----2------2----2----------|
D|------------------------2--------2------2---3----3------------3--3----------|
A|---------------0---------0-------------------------3------------------------|
E|-----------------------------0--------------1-------------1-----------------|

 [Verse]

e|---------------------------------------------------------------------------|
B|--1-1-1-1-1-------0-0-0-0-------------------------------------0--0h1-1-1---|
G|----------2---2---------------0------2p0-2p0-0-0----------0h2----0h2-------|
D|------------2---------------0----------------------2-----------------------|
A|--0--------------------------------------------------3---------------------|
E|------------------0---------------1------------1-------1---------0---------|

e|---------------------------------------------------------------------------|
B|-1h3p1---0-0-0-0h1p0----------------------1--------------------------------|
G|-2-----2-------0-----0-----2p0-2p0-0-0h2----------2-2----------------------|
D|---------------------------------------------------------------------------|
A|---------------------------------------------3-----------------------------|
E|---------0---------------1-----------1---------1---------------------------|

[Pre-Chorus]

e|-0--------------------0h1-0------------------------------0-----------------|
B|-1--3-1--------0-3-1-------------------------------------1-3-1--------0-3--|
G|-2----2---2-2--0---0---------0h2--0-0----------0----2-2--2-2-2---2-2--0-0--|
D|--------2------------------------------2-----2-------------------2-2--0-0--|
A|-0-------------------------------------------------------0-0-0-0-0-0-------|
E|---------------0------0------1------1-----1-------1-------------------0-0--|

e|---0h1----0----------------------------------------------------------------|
B|-1-------------------------------------------------------------------------|
G|-0-----------0h2----0-0----------------------------------------------------|
D|-0------------------------2------------------------------------------------|
A|---------------------------------------------------------------------------|
E|-0-0----0-0--1----1-1-1-1-1------------------------------------------------|

[Chorus]

e|------------------------0---0---0h3------3/5-3-5/8--8-----8------0-0-0------|
B|-3/5-5-5-3/5\3-1-1--------3-----1-----------------------0---0----1----------|
G|-----------------2-2------------0------0--------------0-------0--0----------|
D|-----------------3---3---------------2--------------------------------------|
A|--------------------------------3--------------------------------0----------|
E|-----------------1----------------------------------3-----------------------|

e|-0----------------0---0--0h3-------3/5-3-5/8--8-8-8-8-8-8-0-----------------|
B|-1-3-1-1h3p1--------3----1--------------------5-5-5-5-5-5---3/5-5-5-5/3-1---|
G|-0------------2----------0-------0------------4-4-4-4-4-4-------------------|
D|-------3--------3--------------2--------------------------------------------|
A|-------------------------3--------------------------------------------------|
E|-3--------------------------------------------0-0-0-0-0-0-------------------|

e|--3--1---1-0--0----------3----1-----1-0-0------------------------0---0--0h3-|
B|--1-----------1-3---1----1--------------1---3-----3-1--1h3p1-------3----1---|
G|--2-----------0----------0--------------2--------------------2----------0---|
D|--3-----------2--------0---0--------------2------------3-------3--------2---|
A|--1-----------3---3---------------------0-------------------------------3---|
E|--1-----1----------------3-------3-------------3----------------------------|

e|----3/5-3-5/8--8-8-8-8-8-8--------------------------------------------------|
B|---------------5-5-5-5-5-5---3/5-5-5-5\3-1-1--------------------------------|
G|---------------4-4-4-4-4-4-----------------2--------------------------------|
D|--2----------------------------------------3-3------------------------------|
A|----------------------------------------------------------------------------|
E|---------------0-0-0-0-0-0-----------------1--------------------------------|

[Bridge]

e|-0-3-3/5--3---1-0------------------------------------------0-3-3/5--3---1-0-|
B|----------1----------3-----------------3-3----3h5p3---1-------------1-------|
G|----------2------------3/7-5-------5---4---5--------5---2-----------2-------|
D|------------3------3-----------7-------5------------------3-----------3-----|
A|-----------------------0---------0------------------------------------------|
E|----------1--------------------------=-3--------------1-------------1-------|

e|----------------------------------------0------------1-----0----------------|
B|----3-------------3-3---3h5p3----1---------------------1---1-----1------1h3-|
G|------3/7-5-----5-4---5-------5-----2-------2-2----------2-2---0---0----0---|
D|--3---------7-----5-------------------3---3-----3------------2-------2--0---|
A|------0-------0-----------------------------------x--------0-----0----------|
E|------------------3--------------1------------1-------------------------3---|

e|--------------------------0-----0-----0------0-------------------------3----|
B|-3-1-3h5\3-1-1--------------3-1---3-1-0-3-1--0-----3/5-5-3-3/5-5-3-3/5------|
G|-------------2-2------2---------------0---0---------------------------------|
D|-------------3---3------3----------------------2----------------------------|
A|----------------------------------------------------------------------------|
E|-------------1------1-----------------0----------1--------------------------|

e|-3h5-3----------------------------------------------------------------------|
B|-------5-3-3h5--3-1---------------------------------------------------------|
G|----------------------------------------------------------------------------|
D|----------------------------------------------------------------------------|
A|----------------------------------------------------------------------------|
E|----------------------------------------------------------------------------|

[Chorus]

e|-----0---0--0h3--3/5-3-5/8---8------8-------0-0-0--0-----------------0---0--|
B|-1-----3----1---------------------0---0-----1------1-3-1--1h3p1--------3----|
G|-2----------0-------------------0-------0---2------0------------2-----------|
D|-3----------2-------------------------------2-------------3--------3--------|
A|-3---x------3----x------------------x-------0------------------------x------|
E|-1---x-----------x-----------3------x--------------3-----------------x------|

e|-0h3--------3/5-3-5/8--8-8-8-8-8-8-----------------3-1----1-0--0------------|
B|-1---------------------5-5-5-5-5-5--3/5-5-5-5\3-1--1-----------1-3----1-----|
G|-0-------0-------------4-4-4-4-4-4-----------------2-----------0------------|
D|-------2-------------------------------------------3-----------2--------0---|
A|-3----------x--------------------------------------1----x------3----x-------|
E|------------x----------0-0-0-0-0-0-----------------1----x-----------x-------|

e|-3---1---1-0-0------------------------0---0-0h3----3/5-3-5/8-8-8-8-8-8-8----|
B|-1-----------1---------3-1--1h3p1-------3---1----------------5-5-5-5-5-5----|
G|-0-----------2---3----------------2---------0----------------4-4-4-4-4-4----|
D|---0-----------2------------3-------3-------2----2--------------------------|
A|-------x-----0------------------------x-----3-------------------------------|
E|-3-----x------------3-----------------x----------------------0-0-0-0-0-0----|

e|--------------------8------------8--7---------7--5---------5-0-0-0-3/5\3p0--|
B|----------------------10------10------8-----8------6-----6------------------|
G|-7/9-9-9-7h9p7-----------9--------------7------------5----------------------|
D|---------------10---7-------7-------5-----5------3-----3--------------------|
A|----------------------------------------------------------------------------|
E|----------------------------------------------------------------------------|

e|--------------------------------------------0-0-0---------------------------|
B|-3/5\3p1-------1-0----------0-1--------1----------3/5\3-1--1----------------|
G|---------2---------0------0---2------2---2-------------------2--------------|
D|-----------2---------2--------3-3-------------------------------------------|
A|-0-----------0----------0---------3------------------------0----------------|
E|-----------------0------------1---------------------------------------------|

************************************

| x   Dead note
| h   Hammer-on
| p   Pull-of
| /   Slide up
| \   Slide down

************************************

            
            
Suggest correction
Creating personal tab
Creating personal tab
You can edit any tab online and save it as your Personal.

You can edit, replace or remove any tab part or add personal notes – all changes will be seen only by you.

Personal tabs can be accessed anytime from any device, even offline.
Learn more »
Give kudos to tab author, rate the tab!
1 2 3 4 5
comments
print report bad tab
guest
You may want to rate the tab now too:
select rating
Wanna post a correction for this tab? Suggest correction