Oops, an error
Loading. Please wait.

I Wont Tell A Soul chords

version 2
version 2

Whole song

2,982 views 12 this week
no commentswrite comment
1 2 3 4 5
x 3
add to favorites
×
Save as Personal and add changes to this tab that will be seen only by you. Learn more ›
×
You can save this tab as Personal to edit and correct it or add notes. All changes will be seen only by you. Learn more »
launch autoscroll
font size
0
reset
transpose
0
reset
simplify chords
display chords
guitar tuner
edit
Autoscroll
slow
fast
+/-
esc
set tempo
stop
Author
Difficulty
Strumming
There is no strumming pattern for this song yet. and get +5 IQ
-------------------------------------------------------------
               I Wont Tell A Soul - Charlie Puth
-------------------------------------------------------------
Tabbed by: Skype A Lesson
E-mail:skypealesson@gmail.com
Website: skypealesson.com

SEE OUR VIDEO AND GUITAR CHORD TABS AT 
https://skypealesson.com/2015/08/how-to-play-i-wont-tell-a-soul-by-charlie-puth/

Tuning:standard EADGBe


Chords

    D     A    Em   Edim7  DMaj7  D7  
e|--x-----5-----x-----x------5-----x---|
B|--7-----5-----8-----8------7-----3---|
G|--7-----6-----9-----6------6-----5---|
D|--7-----7-----9-----8------7-----4---|
A|--5-----7-----7-----7------5-----5---|
E|--x-----5-----x-----x------x-----x---|

    G    Gm    Aaug7   F#   Bm   Ab/Bb  
e|--3-----3-----x-------2----2------x----|
B|--3-----3-----6-------2----3------4----|
G|--4-----3-----6-------3----4------5----|
D|--5-----5-----5-------4----4------6----|
A|--5-----5-----x-------4----2------x----|
E|--3-----3-----5-------2----x------6----|

   Eb    Bb    Fm    Fdim7   EbMaj7  Eb7  
e|--x-----6-----8------x-------6------x-----|
B|--4-----6-----9------9-------8------4-----|
G|--3-----7-----10-----7-------7------6-----|
D|--5-----8-----10-----9-------8------5-----|
A|--6-----8-----8------8-------6------6-----|
E|--x-----6-----x------x-------x------x-----|

   Ab    Abm    LAST 3 CHORDS  Gm   Fm  Eb 
e|--4-----4---------------------x----x---x---|
B|--4-----4---------------------8----6---4---|
G|--5-----4---------------------7----5---3---|
D|--6-----6---------------------8----6---5---|
A|--6-----6---------------------x----x---x---|
E|--4-----4---------------------x----x---x---|


VERSE
           D                    D
Oh darling I know you're taken
                           A               A
Something 'bout this just don't feel right
      Em                        Edim7
Every time, one of us, tries to leave here
                  D              D
Oh the other one Holds on tight


CHORUS
       D                 Dmaj7
Baby tonight There's so much
D7  
love in between us
         G                 Gm         
But you say you gotta get home
               D     ASTOP ON 3RD BEAT
Stay here with me
                 D    Gm   Dstop   Aaug7
I won't tell a soul        1beat   3beats hold


VERSE
                D                     D
You tell me someone's waiting for ya
                        A         A
That you can't do this anymore
        Em                   Edim7
But you kiss me again, so go ahead and
                         D             D
Draw the blinds and Lock all the doors


CHORUS
       D                 Dmaj7
Baby tonight There's so much
D7
love in between us
         G                 Gm         
But you say you gotta get home
               D     ASTOP ON 3RD BEAT
Stay here with me
                 D    Gm   Dstop      
I won't tell a soul        1 beat     


Run on D String (4th string) - 0-2-3 (D-E-F)


BRIDGE
          F#                                 F#
Oh if you want me, like I want you, I won’t judge you
                         Bm
This could be our little secret
    Bm
Our secret


   F#
So tell me if you're ready
          F#
'Cause if no one knows then
                  Bm     E       A         Ab/Bb
It ain’t really cheating      1 beat     3beats hold


VERSE REPRISE
            Eb                 Eb
Oh darling I know you're taken 
                              Bb                Bb
But something 'bout this Just feels so right (Oh baby)
              Fm                       Fdim7
'Cause every time, One of us, tries to justify the situation
        Eb                Eb
We just hold on tighter


CHORUS
       Eb                 Ebmaj7 
Baby tonight, There's so much,
Eb7
love in between us
     Ab                 Abm hold
You say you gotta get home
               Eb    Ab/Bb
Stay here with me
               Ab    Gm  Fm  Eb
I won't tell a soul
Suggest correction
Creating personal tab
Creating personal tab
You can edit any tab online and save it as your Personal.

You can edit, replace or remove any tab part or add personal notes – all changes will be seen only by you.

Personal tabs can be accessed anytime from any device, even offline.
Learn more »
Give kudos to tab author, rate the tab!
1 2 3 4 5
comments
print report bad tab
guest
You may want to rate the tab now too:
select rating
Wanna post a correction for this tab? Suggest correction