Oops, an error
Loading. Please wait.

One Call Away tab

version 1
version 1

Whole song

Video

67,576 views 495 this week
10 commentsread comments
1 2 3 4 5
x 56
add to favorites
×
Save as Personal and add changes to this tab that will be seen only by you. Learn more ›
×
You can save this tab as Personal to edit and correct it or add notes. All changes will be seen only by you. Learn more »
launch autoscroll
font size
0
reset
how to read this tab
guitar tuner
edit
Autoscroll
slow
fast
+/-
esc
set tempo
stop
Author
Difficulty
-------------------------------------------------------------------------------
                             ONE CALL AWAY - CHARLIE PUTH
-------------------------------------------------------------------------------
Based off Youtube Cover : https://www.youtube.com/watch?v=BxuY9FET9Y4
Channel: https://www.youtube.com/user/CharliesVlogs

MAKE SURE TO RATE THE TAB IF YOU FIND IT HELPFUL!! ENJOY <3

Tuning:Standard Tuning 

CAPO : 1


[Chorus]

e|-0----------|---|-0--0-|-1--0--------1-|-0-|---|
B|----3--1--1-|-3-|------|-------3--1----|---|-3-|
G|------------|---|------|---------------|---|---|
D|------------|---|------|---------------|---|---|
A|------------|---|------|---------------|---|---|
E|------------|---|------|---------------|---|---|
I'm only one| call| away| I'll be there to save| the| day

e|-0-------|------|----0--0-|-0----------|---|------|
B|----3--1-|-1--1-|-3-------|----3--1--1-|-3-|-1--1-|
G|---------|------|---------|------------|---|------|
D|---------|------|---------|------------|---|------|
A|---------|------|---------|------------|---|------|
E|---------|------|---------|------------|---|------|
Superman| got no-|thing on me| I'm only one| call| away


[Verse]

e|-0--0-------|-------0-|------|-0--0-------|------0--1--1-|
B|-------3--3-|-1--3----|-1----|-------3--3-|-1--3---------|
G|------------|---------|----2-|------------|--------------|
D|------------|---------|------|------------|--------------|
A|------------|---------|------|------------|--------------|
E|------------|---------|------|------------|--------------|
Call me, baby| if you need| a friend| I just wanna give you love

e|-3--3-|-1--1-|-0--0-|-0--0----|---------|-0-|------|
B|------|------|------|-------3-|-1--1--3-|---|-1----|
G|------|------|------|---------|---------|---|----2-|
D|------|------|------|---------|---------|---|------|
A|------|------|------|---------|---------|---|------|
E|------|------|------|---------|---------|---|------|
Come on| come on| come on| Reaching out| to you so| take| a chance

e|------------------|-------------0----|
B|-------1--1--3--3-|-------1--3-----1-|
G|-2--2-------------|-2--2-------------|
D|------------------|------------------|
A|------------------|------------------|
E|------------------|------------------|
No matter where you go| You know you're not alone


[Chorus]

e|-0----------|---|-0--0-|-1--0--------1-|-0-|---|
B|----3--1--1-|-3-|------|-------3--1----|---|-3-|
G|------------|---|------|---------------|---|---|
D|------------|---|------|---------------|---|---|
A|------------|---|------|---------------|---|---|
E|------------|---|------|---------------|---|---|
I'm only one| call| away| I'll be there to save| the| day

e|-0-------|------|----0--0-|-0----------|---|------|
B|----3--1-|-1--1-|-3-------|----3--1--1-|-3-|-1--1-|
G|---------|------|---------|------------|---|------|
D|---------|------|---------|------------|---|------|
A|---------|------|---------|------------|---|------|
E|---------|------|---------|------------|---|------|
Superman| got no-|thing on me| I'm only one| call| away


[Verse]

e|-0--0----|---------|-0-|------|-0--0-------|------|-0-|
B|-------3-|-1--1--3-|---|-1----|-------3--1-|-1--3-|---|
G|---------|---------|---|----2-|------------|------|---|
D|---------|---------|---|------|------------|------|---|
A|---------|---------|---|------|------------|------|---|
E|---------|---------|---|------|------------|------|---|
Come along| with me and| don't| be scared| I just wanna| set you| free

e|-3--3-|-1--1-|-0--0-|-0--0----|---------|-0-|------|
B|------|------|------|-------3-|-1--1--3-|---|----1-|
G|------|------|------|---------|---------|---|-2----|
D|------|------|------|---------|---------|---|------|
A|------|------|------|---------|---------|---|------|
E|------|------|------|---------|---------|---|------|
Come on| come on| come on| You and me| can make it| an-| nywhere

e|------|------------|---|---------|---|
B|-0--1-|-1--1--0----|-0-|-1--3--1-|-1-|
G|------|----------2-|---|---------|---|
D|------|------------|---|---------|---|
A|------|------------|---|---------|---|
E|------|------------|---|---------|---|
For now| we can stay here| for| a while| ay'

e|---------|------------|------------|
B|-0--0--1-|-1--1--0----|-0--1--3--1-|
G|---------|----------2-|------------|
D|---------|------------|------------|
A|---------|------------|------------|
E|---------|------------|------------|
Cause you know| I just wanna| see you smile


[Bridge]

e|------------------|----3--3--3--0-------|
B|-------1--1--3--3-|----------------3--1-|
G|-2--2-------------|-2-------------------|
D|------------------|---------------------|
A|------------------|---------------------|
E|------------------|---------------------|
No matter where you go| You know you're not alone


[Chorus]

e|----3--0----|---|-0--0-|-1--0--------1-|-0-|---|
B|-1--------1-|-3-|------|-------3--1----|---|-3-|
G|------------|---|------|---------------|---|---|
D|------------|---|------|---------------|---|---|
A|------------|---|------|---------------|---|---|
E|------------|---|------|---------------|---|---|
I'm only one| call| away| I'll be there to save| the| day

e|-0-------|------|----0--0-|-0----------|---|------|
B|----3--1-|-1--1-|-3-------|----3--1--1-|-3-|-1--1-|
G|---------|------|---------|------------|---|------|
D|---------|------|---------|------------|---|------|
A|---------|------|---------|------------|---|------|
E|---------|------|---------|------------|---|------|
Superman| got no-|thing on me| I'm only one| call| away


[Bridge]

e|----0--3--5-|-8-|-0--0----|----0--3--5-|-8--0-|-0----|
B|-1----------|---|-------3-|-1----------|------|----3-|
G|------------|---|---------|------------|------|------|
D|------------|---|---------|------------|------|------|
A|------------|---|---------|------------|------|------|
E|------------|---|---------|------------|------|------|
And when you're weak| I'll be strong|I'm gonna keep| holding| on

e|----0--3-|-5--8-|-8--8-|-0--0----|-----|
B|-1-------|------|------|-------3-|-3h5-|
G|---------|------|------|---------|-----|
D|---------|------|------|---------|-----|
A|---------|------|------|---------|-----|
E|---------|------|------|---------|-----|
Now don't you| worry| it won't| be long| Darling

e|----------------0-------|----3--3--5-|-0-------|
B|----------1--3-----1--3-|-1----------|----3--1-|
G|-2--2--2----------------|------------|---------|
D|------------------------|------------|---------|
A|------------------------|------------|---------|
E|------------------------|------------|---------|
And when you feel like hope is gone| Just run into| my arms


[Chorus]

e|-0----------|---|-0--0-|-1--0--------1-|-0-|---|
B|----3--1--1-|-3-|------|-------3--1----|---|-3-|
G|------------|---|------|---------------|---|---|
D|------------|---|------|---------------|---|---|
A|------------|---|------|---------------|---|---|
E|------------|---|------|---------------|---|---|
I'm only one| call| away| I'll be there to save| the| day

e|-5--0----|------|----0--0-|-0----------|
B|-------3-|-1--1-|-3-------|----3--1--1-|
G|---------|------|---------|------------|
D|---------|------|---------|------------|
A|---------|------|---------|------------|
E|---------|------|---------|------------|
Superman| got no-|thing on me| I'm only one

                (let ring)           (let ring)
e|-0-------|----------------0h1h3-|-------------|-5--0-------|
B|----3--1-|-1h3------------------|-3-----------|-------3--1-|
G|---------|----------------------|-------------|------------|
D|---------|----------------------|-------------|------------|
A|---------|----------------------|-------------|------------|
E|---------|----------------------|-------------|------------|
I'm only| oneeeeeeee| callll| away

e|-1--0--------1-|-0-|-0----|-5--0----|------|-3--5--0-|
B|-------3--1----|---|----3-|-------3-|-1--1-|---------|
G|---------------|---|------|---------|------|---------|
D|---------------|---|------|---------|------|---------|
A|---------------|---|------|---------|------|---------|
E|---------------|---|------|---------|------|---------|
I'll be there to| save| the| day| Superman| got no-|thing on me

e|-0----------|---|------|
B|----3--1--1-|-3-|-1--1-|
G|------------|---|------|
D|------------|---|------|
A|------------|---|------|
E|------------|---|------|
I'm only one| call| away

e|-0--3----|---|---|------|
B|-------3-|-1-|-3-|-1--1-|
G|---------|---|---|------|
D|---------|---|---|------|
A|---------|---|---|------|
E|---------|---|---|------|
I'm only| one| call| away



************************************
| h   Hammer-on
***********************************

            
            
Suggest correction
Creating personal tab
Creating personal tab
You can edit any tab online and save it as your Personal.

You can edit, replace or remove any tab part or add personal notes – all changes will be seen only by you.

Personal tabs can be accessed anytime from any device, even offline.
Learn more »
comments
print report bad tab
10 comments total. Showing first comments.
+7 reply
Twinkie878 100 Feb 11, 2016 05:41 PM

Great Tab!!!!

+3 reply
timothy10augu1 17 Oct 25, 2016 02:47 AM

Seeking an opinion from someone with a better ear than me, but does it sound too high with the capo on?

+2 reply
ksthemaster 10 Dec 28, 2016 10:09 PM

Awesome tab! Spot on! Nice job!

guest
You may want to rate the tab now too:
select rating
Wanna post a correction for this tab? Suggest correction