Oops, an error
Loading. Please wait.

One Call Away tab

version 2
version 2

Whole song

Video

5,098 views 54 this week
1 commentread comment
1 2 3 4 5
x 5
add to favorites
×
Save as Personal and add changes to this tab that will be seen only by you. Learn more ›
×
You can save this tab as Personal to edit and correct it or add notes. All changes will be seen only by you. Learn more »
launch autoscroll
font size
0
reset
how to read this tab
guitar tuner
edit
Autoscroll
slow
fast
+/-
esc
set tempo
stop
[Intro]

e|-------------------------|---------------------------------------|
B|--------1----3---1-------|-------------------1----1---3----------|
G|--------0----0---0-------|-------------------2----0---0----------|
D|--------2----0---2-------|-------------------3----2---0----------|
A|--------3----2---0-------|-------------------3----0---2----------|
E|-------------------------|---------------------------------------|
I'm only one call away....   I'll be there to save the day....

e|--------------------------|--------------------------------------|
B|------------1---3----1----|--------------1---3--1----------------|
G|------------0---0----0----|--------------2---2--0----------------|
D|------------2---0----2----|--------------3---0--2----------------|
A|------------3---2----0----|--------------3---0--3----------------|
E|--------------------------|--------------------------------------|
Superman got nothing on me..  I'm only one call away....


[Verse]

e|-----s--------s------------s--------s----------------------------|
B|--1------3-3-------------1-----1-1-------------------------------|
G|--2------0-0-------------0-----2-2-------------------------------|
D|--2------0-0-------------2-----3-3-------------------------------|
A|--0------2---------------3-----3---------------------------------|
E|-----------------------------------------------------------------|
      Call me baby if you need a friend...

e|-----s--------s-----------------s---------------s----------------|
B|--1------3-3-------------1--------------1-1----------------------|
G|--2------0-0-------------0--------------2-2----------------------|
D|--2------0-0-------------2--------------3-3----------------------|
A|--0------2---------------3--------------3------------------------|
E|-----------------------------------------------------------------|
       I just wanna give you love, common common common. 

e|-----s--------s------------s--------s----------------------------|
B|--1------3-3-------------1-----1-1-------------------------------|
G|--2------0-0-------------0-----2-2-------------------------------|
D|--2------0-0-------------2-----3-3-------------------------------|
A|--0------2---------------3-----3---------------------------------|
E|-----------------------------------------------------------------|
       Reaching out to you, so take a chance


[Refrain]

      (prolong)              (prolong) 
e|-----------------------------------------------------------------|
B|--------1----------------------3---------------------------------|
G|--------2----------------------0---------------------------------|
D|--------3----------------------0---------------------------------|
A|--------3----------------------2---------------------------------|
E|-----------------------------------------------------------------|
No matter where you go, you know your not alone...


[Chorus]

e|-----------s---s----s----|------------s----------s---s----s------|
B|--------1----3---1-------|-------------------1----1---3----------|
G|--------0----0---0-------|-------------------2----0---0----------|
D|--------2----0---2-------|-------------------3----2---0----------|
A|--------3----2---0-------|-------------------3----0---2----------|
E|-------------------------|---------------------------------------|
I'm only one call away....   I'll be there to save the day....

e|---s---------s----s----s--|------------s--s---s------------------|
B|------------1---3----1----|--------------1---3--1----------------|
G|------------0---0----0----|--------------2---2--0----------------|
D|------------2---0----2----|--------------3---0--2----------------|
A|------------3---2----0----|--------------3---0--3----------------|
E|--------------------------|--------------------------------------|
Superman got nothing on me..  I'm only one call away....


[Verse]

e|-----s---------------s------------s--------s---------------------|
B|-1-1--------3-3---------------1-1------1-1-----------------------|
G|-2-2--------0-0---------------0-0------2-2-----------------------|
D|-2-2--------0-0---------------2-2------3-3-----------------------|
A|-0----------2-----------------3--------3-------------------------|
E|-----------------------------------------------------------------|
       Come along with me and don't be scared
           
e|-----s--------s-----------------s---------------s----------------|
B|--1-1-----3-3-------------1-1-------------1-1--------------------|
G|--2-2-----0-0-------------0-0-------------2-2--------------------|
D|--2-2-----0-0-------------2-2-------------3-3--------------------|
A|--0-------2---------------3---------------3----------------------|
E|-----------------------------------------------------------------|
        I just wanna set you free, common common common
                
e|-----s---------------s------------s--------s---------------------|
B|-1-1--------3-3---------------1-1------1-1-----------------------|
G|-2-2--------0-0---------------0-0------2-2-----------------------|
D|-2-2--------0-0---------------2-2------3-3-----------------------|
A|-0----------2-----------------3--------3-------------------------|
E|-----------------------------------------------------------------|
        You and me can make it anywhere..
                
e|-----s---------------s------------s--------s---------------------|
B|-1-1--------3-3---------------1-1------1-1-----------------------|
G|-2-2--------0-0---------------0-0------2-2-----------------------|
D|-2-2--------0-0---------------2-2------3-3-----------------------|
A|-0----------2-----------------3--------3-------------------------|
E|-----------------------------------------------------------------|
        For now, we can stay here for a while..
                
e|-----s---------------s------------s--------s---------------------|
B|-1-1--------3-3---------------1-1------1-1-----------------------|
G|-2-2--------0-0---------------0-0------2-2-----------------------|
D|-2-2--------0-0---------------2-2------3-3-----------------------|
A|-0----------2-----------------3--------3-------------------------|
E|-----------------------------------------------------------------|
         'cause you know, I just wanna see you smile..

                 
[Refrain]

      (prolong)              (prolong) 
e|-----------------------------------------------------------------|
B|--------1----------------------3---------------------------------|
G|--------2----------------------0---------------------------------|
D|--------3----------------------0---------------------------------|
A|--------3----------------------2---------------------------------|
E|-----------------------------------------------------------------|
No matter where you go, you know your not alone...


[Chorus]

e|-----------s---s----s----|------------s----------s---s----s------|
B|--------1----3---1-------|-------------------1----1---3----------|
G|--------0----0---0-------|-------------------2----0---0----------|
D|--------2----0---2-------|-------------------3----2---0----------|
A|--------3----2---0-------|-------------------3----0---2----------|
E|-------------------------|---------------------------------------|
I'm only one call away....   I'll be there to save the day....

e|---s---------s----s----s--|------------s--s---s------------------|
B|------------1---3----1----|--------------1---3--1----------------|
G|------------0---0----0----|--------------0---0--0----------------|
D|------------2---0----2----|--------------2---0--2----------------|
A|------------3---2----0----|--------------3---2--0----------------|
E|--------------------------|--------------------------------------|
Superman got nothing on me..  I'm only one call away....


[Bridge]

e|-----------------s----s------s-------|-----------------s----s------s---|
B|-------------1-----1-------3------|-------------1-----1-------3--|
G|-------------2-----2-------0------|-------------2-----2-------0--|
D|-------------3-----2-------0------|-------------3-----2-------0--|
A|-------------3-----0-------2------|-------------3-----0-------2--|
E|-------------------------------------|---------------------------------|
And when your weak, I'll be strong..  I'm gonna keep, holding on...

e|-----------------s----s------s----|
B|-------------1-----1-------3------|
G|-------------2-----2-------0------|
D|-------------3-----2-------0------|
A|-------------3-----0-------2------|
E|----------------------------------|
 Now don't you worry, it won't be long..

 
[Refrain 2]

      (prolong)                               
e|-------------------------------------------------------------|
B|--------1----------------------------------------------------|
G|--------2----------------------------------------------------|
D|--------3----------------------------------------------------|
A|--------3----------------------------------------------------|
E|-------------------------------------------------------------|
Darling, when you feel like hope is gone...

      (prolong)                               
e|-------------------------------------------------------------|
B|--------3----------------------------------------------------|
G|--------0----------------------------------------------------|
D|--------0----------------------------------------------------|
A|--------2----------------------------------------------------|
E|-------------------------------------------------------------|
Just run into my arms!


[Chorus]

(Strumming part)

        C    G    Am7
I'm only one call away
                  F    Am7 G
I'll be there to save the day
             C   G7     Am7
Superman got nothing on me
        F           G        C   G    Am7
I'm only one, I'm only one, one call away
                  F    Am7  G
I'll be there to save the day
              C   G     Am7
Superman got nothing on me
          F   Dm   C
I'm only one call away
 
                                      (prolong)
e|------------------------------------------------------------|
B|------------------1-------3-----------1---------------------|
G|------------------2-------2-----------0---------------------|
D|------------------3-------0-----------2---------------------|
A|------------------3-------0-----------3---------------------|
E|------------------------------------------------------------|
      I'm only     one     call        away


************************************

| >   Accented note
| s   Slap

************************************
Suggest correction
Creating personal tab
Creating personal tab
You can edit any tab online and save it as your Personal.

You can edit, replace or remove any tab part or add personal notes – all changes will be seen only by you.

Personal tabs can be accessed anytime from any device, even offline.
Learn more »
comments
print report bad tab
1 comment total.
0 reply
CeorlMusicLines 54 May 12, 2016 10:17 PM

Yow, request I song I'll handle it

guest
You may want to rate the tab now too:
select rating
Wanna post a correction for this tab? Suggest correction