Oops, an error
Loading. Please wait.

One Call Away tab

version 3
version 3

Whole song

Video

463 views 6 this week
1 commentread comment
1 2 3 4 5
2 more votes to show rating
add to favorites
×
Save as Personal and add changes to this tab that will be seen only by you. Learn more ›
×
You can save this tab as Personal to edit and correct it or add notes. All changes will be seen only by you. Learn more »
launch autoscroll
font size
0
reset
how to read this tab
guitar tuner
edit
Autoscroll
slow
fast
+/-
esc
set tempo
stop
About this tab version
A (simple) fingerstyle version of the song. Was this info helpful? Yes No
[Intro]
e|------0-----------|---------|---3-----|---0-------|
B|--------------1---|---1-----|---0-----|---1-------|
G|----------0-------|---0-----|---------|---0-------|
D|------------------|---2-----|---------|---2-------|
A|--3---------------|---3-----|---------|---------3-|
E|------------------|---------|---3-----|-----------|
  I'm only           one       call      away

e|----1p-0----------|---1-----|---0-----|-----------|
B|----------3p-1----|---1-----|---1-----|---3-------|
G|------------------|---2-----|---0-----|---0-------|
D|------------------|---------|---2-----|---0-------|
A|------------------|---3-----|---------|-----------|
E|------------------|---------|---------|---3-----3-|
  I'll be there to   save      the       day

e|---0--------------|---------|---3-----|---0-------|
B|-------3--3---1---|---1-----|---0-----|---1-------|
G|------------------|---0-----|---------|---0-------|
D|------------------|---2-----|---------|---2-------|
A|------------------|---3-----|---------|---------3-|
E|------------------|---------|---3-----|-----------|
  Superman got       nothing   on        me

e|------0-----------|---------|---------|-----------|
B|--------------1---|---1-----|---3-----|---1----1/5|
G|----------0-------|---2-----|---2-----|---0----0--|
D|------------------|---3-----|---0-----|---2-------|
A|------------------|---3-----|---------|---3-------|
E|------------------|---------|---------|-----------|
  I'm only           one       call      away

[Verse]
e|----------0--0---------|----------0----|------------|-------------|
B|----------1--1---3--3--|------3---1----|-----1--1---|-------------|
G|-----------------0--0--|--0-------0----|--0-----2---|-------------|
D|------2----------------|---------------|--------3---|-------------|
A|---0------0------------|----------3----|--3-----3---|-------------|
E|-----------------3-----|--3------------|------------|-------------|
  Call me, baby,          if you need     a friend

e|----------0--0---------|----------0----|-----3--3---|-1-1--0-0----|
B|----------1--1---3--3--|------3---1----|-----1--1---|-1-1--0-0----|
G|-----------------0--0--|--0-------0----|--0---------|-------------|
D|------2----------------|---------------|------------|-------------|
A|---0------0------------|----------3----|-----3--3---|-3-3---------|
E|-----------------3-----|--3------------|------------|-------------|
  I just wanna            give you love   Come on, come on, come on
e|----------0--0---------|----------0----|------------|-------------|
B|----------1--1---3--3--|------3---1----|-----1--1---|-------------|
G|-----------------0--0--|--0-------0----|--0-----2---|-------------|
D|------2----------------|---------------|--------3---|-------------|
A|---0------0------------|----------3----|--3-----3---|-------------|
E|-----------------3-----|--3------------|------------|-------------|
  Reaching out to you,    so take         a chance

e|---------------|--1--------------------|--3--3--3--3--|-----------|
B|---------1--1--|--1--------------------|--0--0--0--0--|--3--------|
G|---2--2--2--2--|--2--------------------|--0--0--0--0--|--0--------|
D|---3--3--3--3--|-----------------------|--------------|--0--------|
A|---3--3--------|-----------------------|--------------|-----------|
E|---------------|-------------------3---|--------------|-----------|
  No matter where you go                  You know you're not alone

[Chorus]
e|------0-----------|------------|---3--------|---0----------|
B|--------------1---|---1--------|---0--------|---1----------|
G|----------0-------|---0--------|------------|---0----------|
D|------------------|---2--------|------------|---2----------|
A|------------------|---3----x---|--------x---|--------x-----|
E|------------------|--------x---|---3----x---|--------x-----|
  I'm only           one          call         away

e|----1p-0----------|---1--------|---0--------|--------------|
B|----------3p-1----|---1--------|---1--------|---3----------|
G|------------------|---2--------|---0--------|---0----------|
D|------------------|------------|---2--------|---0----------|
A|------------------|---3----x---|--------x---|--------x-----|
E|------------------|--------x---|--------x---|---3----x---3-|
  I'll be there to   save         the          day

e|---0--------------|------------|---3--------|---0----------|
B|-------3--3---1---|---1--------|---0--------|---1----------|
G|------------------|---0--------|------------|---0----------|
D|------------------|---2--------|------------|---2----------|
A|------------------|---3----x---|--------x---|--------x-----|
E|------------------|--------x---|---3----x---|--------x-----|
  Superman got       nothing      on           me 

e|------0-----------|------------|------------|--------------|
B|--------------1---|---1--------|---3--------|---1----------|
G|----------0-------|---2--------|---2--------|---0----------|
D|------------------|---3--------|---0--------|---2----------|
A|------------------|---3----x---|--------x---|---3----x-----|
E|------------------|--------x---|--------x---|--------x-----|
  I'm only           one          call         away

[Verse 2]
e|----------0--0---------|----------0----|------------|-------------|
B|----------1--1---3--3--|------3---1----|-----1--1---|-------------|
G|-----------------0--0--|--0-------0----|--0-----2---|-------------|
D|------2----------------|---------------|--------3---|-------------|
A|---0------0------------|----------3----|--3-----3---|-------------|
E|-----------------3-----|--3------------|------------|-------------|
  Come along with me      and don't       be scared

e|----------0--0---------|----------0----|-----3--3---|-1-1--0-0----|
B|----------1--1---3--3--|------3---1----|-----1--1---|-1-1--0-0----|
G|-----------------0--0--|--0-------0----|--0---------|-------------|
D|------2----------------|---------------|------------|-------------|
A|---0------0------------|----------3----|-----3--3---|-3-3---------|
E|-----------------3-----|--3------------|------------|-------------|
  I just wanna            set you free    Come on, come on, come on

e|----------0--0---------|----------0----|------------|-------------|
B|----------1--1---3--3--|------3---1----|-----1--1---|-------------|
G|-----------------0--0--|--0-------0----|--0-----2---|-------------|
D|------2----------------|---------------|--------3---|-------------|
A|---0------0------------|----------3----|--3-----3---|-------------|
E|-----------------3-----|--3------------|------------|-------------|
  You and me              can make it     anywhere

e|---------------|---------------|---------------|------------------|
B|---1-------1---|---3-------3---|---1-------1---|---1-------1------|
G|---2---2-------|---0---0-------|---0---0-------|---2---2----------|
D|---2-----------|---------------|---2-----------|---3--------------|
A|---0-----------|---------------|---3-----------|---3--------------|
E|---------------|---3-----------|---------------|------------------|
  For now, we can stay here for a while, ay

e|---------------|---------------|---------------|------------------|
B|---1-------1---|---3-------3---|---1-------1---|---1--------------|
G|---2---2-------|---0---0-------|---0---0-------|---2--------------|
D|---2-----------|---------------|---2-----------|---3--------------|
A|---0-----------|---------------|---3-----------|---3--------------|
E|---------------|---3-----------|---------------|------------------|
  Cause you know, I just wanna see you smile

e|---------------|--1--------------------|--3--3--3--3--|-----------|
B|---------1--1--|--1--------------------|--0--0--0--0--|--3--------|
G|---2--2--2--2--|--2--------------------|--0--0--0--0--|--0--------|
D|---3--3--3--3--|-----------------------|--------------|--0--------|
A|---3--3--------|-----------------------|--------------|-----------|
E|---------------|-------------------3---|--------------|-----------|
  No matter where you go                  You know you're not alone

[Chorus]
e|------0-----------|------------|---3--------|---0----------|
B|--------------1---|---1--------|---0--------|---1----------|
G|----------0-------|---0--------|------------|---0----------|
D|------------------|---2--------|------------|---2----------|
A|------------------|---3----x---|--------x---|--------x-----|
E|------------------|--------x---|---3----x---|--------x-----|
  I'm only           one          call         away

e|----1p-0----------|---1--------|---0--------|--------------|
B|----------3p-1----|---1--------|---1--------|---3----------|
G|------------------|---2--------|---0--------|---0----------|
D|------------------|------------|---2--------|---0----------|
A|------------------|---3----x---|--------x---|--------x-----|
E|------------------|--------x---|--------x---|---3----x---3-|
  I'll be there to   save         the          day

e|---3---0--0-------|------------|---3--------|---0----------|
B|--------------3---|---1--------|---0--------|---1----------|
G|------------------|---0--------|------------|---0----------|
D|------------------|---2--------|------------|---2----------|
A|------------------|---3----x---|--------x---|--------x-----|
E|------------------|--------x---|---3----x---|--------x-----|
  Superman got       nothing      on           me 

e|------0-----------|------------|------------|--------------|
B|--------------1---|---1--------|---3--------|---1----------|
G|----------0-------|---2--------|---2--------|---0----------|
D|------------------|---3--------|---0--------|---2----------|
A|------------------|---3----x---|--------x---|---3----x-----|
E|------------------|--------x---|--------x---|--------x-----|
  I'm only           one          call         away

[Bridge]
e|-------0---3---|---1---------|---0---------|---3--------3--|
B|---1-----------|---2---------|---1---------|---0--------0--|
G|---------------|---3---------|---2---------|---0--------0--|
D|---------------|---3---------|---2---------|---------------|
A|---------------|--------x----|--------x----|--------x------|
E|---------------|--------x----|--------x----|---3----x------|
  And when you're weak          I'll be       strong

e|-------0---3---|---1---------|---0---------|---3--------3--|
B|---1-----------|---2---------|---1---------|---0--------0--|
G|---------------|---3---------|---2---------|---0--------0--|
D|---------------|---3---------|---2---------|---------------|
A|---------------|--------x----|--------x----|--------x------|
E|---------------|--------x----|--------x----|---3----x------|
  I'm gonna       keep          holding       on

e|-------0---3---|---1---------|---0---------|---3--------3--|
B|---1-----------|---2---------|---1---------|---0--------0--|
G|---------------|---3---------|---2---------|---0--------0--|
D|---------------|---3---------|---2---------|---------------|
A|---------------|--------x----|--------x----|--------x------|
E|---------------|--------x----|--------x----|---3----x------|
  Now don't you   worry, it     won't be      long, Darling

e|---------------|--1--------------------|--3--3--3--3--|-----------|
B|---------1--1--|--1--------------------|--0--0--0--0--|--3--------|
G|---2--2--2--2--|--2--------------------|--0--0--0--0--|--0--------|
D|---3--3--3--3--|-----------------------|--------------|--0--------|
A|---3--3--------|-----------------------|--------------|-----------|
E|---------------|-------------------3---|--------------|-----------|
  And when you feel like hope is gone     Just run into my arms

[Chorus]
e|------0-----------|---------|---3-----|---0-------|
B|--------------1---|---1-----|---0-----|---1-------|
G|----------0-------|---0-----|---------|---0-------|
D|------------------|---2-----|---------|---2-------|
A|------------------|---3-----|---------|-----------|
E|------------------|---------|---3-----|-----------|
  I'm only           one       call      away

e|----1p-0----------|---1-----|---0-----|-----------|
B|----------3p-1----|---1-----|---1-----|---3-------|
G|------------------|---2-----|---0-----|---0-------|
D|------------------|---------|---2-----|---0-------|
A|------------------|---3-----|---------|-----------|
E|------------------|---------|---------|---3-----3-|
  I'll be there to   save      the       day

e|---3---0--0-------|------------|---3--------|---0----------|
B|--------------3---|---1--------|---0--------|---1----------|
G|------------------|---0--------|------------|---0----------|
D|------------------|---2--------|------------|---2----------|
A|------------------|---3----x---|--------x---|--------x---3-|
E|------------------|--------x---|---3----x---|--------x-----|
  Superman got       nothing      on           me
  
e|------0-----------|------------|--0---------|-----------0--|
B|--------------1---|---1--------|----------1-|---1--3h---3--|
G|----------0-------|---2--------|------0-----|------0----0--|
D|------------------|---3--------|------------|------0-------|
A|------------------|---3--------|------------|--------------|
E|------------------|------------|------------|------3----3--|
  I'm only           one,         I'm only     one  

e|---1-----3--------|---3--------|---3--------|---0----------|
B|---0-----0--------|---0--------|---0--------|---1----------|
G|---0-----0--------|------------|------------|---0----------|
D|------------------|------------|------------|---2----------|
A|------------------|--------x---|--------x---|--------x-----|
E|------------------|---3----x---|---3----x---|--------x-----|
                                  call         away 

e|----1p-0----------|---1--------|---0--------|--------------|
B|----------3p-1----|---1--------|---1--------|---3----------|
G|------------------|---2--------|---0--------|---0----------|
D|------------------|------------|---2--------|---0----------|
A|------------------|---3----x---|--------x---|--------x-----|
E|------------------|--------x---|--------x---|---3----x---3-|
  I'll be there to   save         the          day

e|---3---0--0-------|------------|---3--------|---0----------|
B|--------------3---|---1--------|---0--------|---1----------|
G|------------------|---0--------|------------|---0----------|
D|------------------|---2--------|------------|---2----------|
A|------------------|---3----x---|--------x---|--------x-----|
E|------------------|--------x---|---3----x---|--------x-----|
  Superman got       nothing      on           me
 
e|------0-----------|------------|------------|--------------|
B|--------------1---|---1--------|---3--------|---1----------|
G|----------0-------|---2--------|---2--------|---0----------|
D|------------------|---3--------|---0--------|---2----------|
A|------------------|---3----x---|--------x---|---3----x-----|
E|------------------|--------x---|--------x---|--------x-----|
  I'm only           one          call         away

e|------0-----------|------------|------------|--------------|
B|--------------1---|---1--------|---3--------|---1----------|
G|----------0-------|---2--------|---2--------|---0----------|
D|------------------|---3--------|---0--------|---2----------|
A|------------------|---3--------|------------|---3----------|
E|------------------|------------|------------|--------------|
  I'm only           one          call         away


************************************

| p  Pull-off
| /  Slide up
| x  Dead note
| h  Hammer-on


************************************

            
            
Suggest correction
Creating personal tab
Creating personal tab
You can edit any tab online and save it as your Personal.

You can edit, replace or remove any tab part or add personal notes – all changes will be seen only by you.

Personal tabs can be accessed anytime from any device, even offline.
Learn more »
Give kudos to tab author, rate the tab!
1 2 3 4 5
comments
print report bad tab
1 comment total.
0 reply
orim_miro 10 Apr 03, 2017 12:04 PM

👍

guest
You may want to rate the tab now too:
select rating
Wanna post a correction for this tab? Suggest correction