Oops, an error
Loading. Please wait.

We Dont Talk Anymore tab

version 2
version 2

Whole song

  • About this tabs version: https://www.youtube.com/watch?v=OMpGjKPm0Cc .

Interactive

Video

24,854 views 240 this week
no commentswrite comment
1 2 3 4 5
x 7
add to favorites
×
Save as Personal and add changes to this tab that will be seen only by you. Learn more ›
×
You can save this tab as Personal to edit and correct it or add notes. All changes will be seen only by you. Learn more »
launch autoscroll
font size
0
reset
how to read this tab
guitar tuner
edit
Autoscroll
slow
fast
+/-
esc
set tempo
stop
[Rhythm]

   F                                 G
e|---------------------------------|---------------------------------|
B|---------------------------------|---------------------------------|
G|-----2-----2-----2-----2-----2---|-----4-----4-----4-----4-----4---|
D|-3-----3-----3-----3-----3-------|-5-----5-----5-----5-----5-------|
A|---3-----3-----3-----3-----3-----|---5-----5-----5-----5-----5-----|
E|---------------------------------|---------------------------------|

   Am                                Em
e|---------------------------------|---------------------------------|
B|-----1-----1-----1-----1-----1---|---------------------------------|
G|---------------------------------|-----0-----0-----0-----0-----0---|
D|---2-----2-----2-----2-----2-----|---2-----2-----2-----2-----2-----|
A|-0-----0-----0-----0-----0-------|-2-----2-----2-----2-----2-------|
E|---------------------------------|---------------------------------|

[Melody]

e|---0--0--------|-------------0--0--------|-------------0--0--------|-----------------3----|0h1p0-------|
B|-3-------3-1---|-----------3-------3-1-0-|(0)--------3-------3-1---|--------0---1---------|------3-----|
G|-------------2-|(2)----------------------|-----------------------2-|(2)-2-----------------|------------|
D|---------------|-------------------------|-------------------------|----------------------|------------|
A|---------------|-------------------------|-------------------------|----------------------|------------|
E|---------------|-------------------------|-------------------------|----------------------|------------|
 (melody starts halfway through the bar)


[Chorus: Charlie Puth]
We don't talk anymore
We don't talk anymore
We don't talk anymore
Like we used to do
We don't love anymore
What was all of it for?
Oh, we don't talk anymore
Like we used to do...

[Verse 1: Charlie Puth]
I just heard you found the one you've been looking
You've been looking for
I wish I would have known that wasn't me
Cause even after all this time I still wonder
Why I can't move on
Just the way you did so easily

[Pre-Chorus 1: Charlie Puth]
Don't wanna know
What kind of dress you're wearing tonight
If he's holding onto you so tight
The way I did before
I overdosed
Should've known your love was a game
Now I can't get you out of my brain
Oh, it's such a shame

[Chorus: Charlie Puth]
That we don't talk anymore
We don't talk anymore
We don't talk anymore
Like we used to do
We don't love anymore
What was all of it for?
Oh, we don't talk anymore
Like we used to do

[Verse 2: Selena Gomez]
I just hope you're lying next to somebody
Who knows how to love you like me
There must be a good reason that you're gone
Every now and then I think you
Might want me to come show up at your door
But I'm just too afraid that I'll be wrong

[Pre-Chorus 2: Selena Gomez]
Don't wanna know
If you're looking into her eyes
If she's holding onto you so tight the way I did before
I overdosed
Should've known your love was a game
Now I can't get you out of my brain
Oh, it's such a shame

[Chorus: Charlie Puth & Selena Gomez]
That we don't talk anymore
(We don't we don't)
We don't talk anymore
(We don't we don't)
We don't talk anymore
Like we used to do
We don't love anymore
(We don't we don't)
What was all of it for?
(We don't we don't)
Oh, we don't talk anymore
Like we used to do
Like we used to do

[Bridge: Charlie Puth & Selena Gomez]
Don't wanna know
What kind of dress you're wearing tonight
If he's giving it to you just right
The way I did before
I overdosed
Should've known your love was a game
Now I can't get you out of my brain
Oh, it's such a shame

[Chorus: Charlie Puth & Selena Gomez]
That we don't talk anymore
(We don't we don't)
We don't talk anymore
(We don't we don't)
We don't talk anymore
Like we used to do
We don't love anymore
(We don't we don't)
What was all of it for?
(We don't we don't)
Oh, we don't talk anymore
Like we used to do

[Breakdown: Charlie Puth & Selena Gomez]
(We don't talk anymore)
Don't wanna know
What kind of dress you're wearing tonight (Oh)
If he's holding onto you so tight (Oh)
The way I did before
(We don't talk anymore)
I overdosed
Should've known your love was a game (Oh)
Now I can't get you out of my brain (Woah)
Oh, it's such a shame

[Outro: Charlie Puth & Selena Gomez]
That we don't talk anymore

***********************************

| h Hammer-on
| p Pull-off

***********************************

            
            
Suggest correction
Creating personal tab
Creating personal tab
You can edit any tab online and save it as your Personal.

You can edit, replace or remove any tab part or add personal notes – all changes will be seen only by you.

Personal tabs can be accessed anytime from any device, even offline.
Learn more »
comments
print report bad tab
guest
You may want to rate the tab now too:
select rating
Wanna post a correction for this tab? Suggest correction