Oops, an error
Loading. Please wait.

H2O bass

13 views 1 this week
no commentswrite comment
1 2 3 4 5
3 more votes to show rating
add to favorites
×
Save as Personal and add changes to this tab that will be seen only by you. Learn more ›
×
You can save this tab as Personal to edit and correct it or add notes. All changes will be seen only by you. Learn more »
launch autoscroll
font size
0
reset
guitar tuner
edit
Autoscroll
slow
fast
+/-
esc
set tempo
stop
Author
Difficulty
Tabbed by: 6METAL6BASSIST6
E-mail: petergriffinav@gmail.com

Tuning: EADG

G|----------------------------------------------------------------|
D|------------------------3-------------------------------3-------|
A|----------------3-/-5---------------------------3-/-5-----------|
E|1-------------------------------1-------------------------------|

G|----------------------------------------------------------------|
D|------------------------3---------------------------------------|
A|----------------3-/-5-------------------------------------------|
E|1-------------------------------1-------------------------------|

0:10

G|----------------------------------------------------------------|
D|3-------------------------------1-------------------------------|
A|----------------3---3---------------------------1---1-----------|
E|----------------------------------------------------------------|

G|----------------------------------------------------------------|
D|3-------------------------------3-------------------------------|
A|----------------3---3---------------------------3---3-----------|
E|----------------------------------------------------------------|

G|----------------------------------------------------------------|
D|----------------------------------------------------------------|
A|----------------5---5-------------------------------------------|
E|3-------------------------------3---------------3---3-----------|

G|----------------------------------------------------------------|
D|----------------5---5-------------------------------------------|
A|3-------------------------------3---------------3---3-----------|
E|----------------------------------------------------------------|

0:27

G|----------------------------------------------------------------|
D|3-------------------------------1-------------------------------|
A|----------------3---3---------------------------1---1-----------|
E|----------------------------------------------------------------|

G|----------------------------------------------------------------|
D|3-----------------------------------------------------------2---|
A|----------------3---3-----------1-----1-1-----1-1---3---5-------|
E|----------------------------------------------------------------|

G|----------------------------------------------------------------|
D|3---------------3---3-------------------------------------------|
A|--------------------------------3---------------3---3-----------|
E|----------------------------------------------------------------|

G|----------------------------------------------------------------|
D|3-------------------------------3-------3-----------------------|
A|----------------3---3-------------------------------------------|
E|----------------------------------------------------------------|

0:43

G|----------------------------5-------------------------------5---|
D|--------------------5---7---------------------------5---7-------|
A|3-----------5---7---------------3-----------5---7---------------|
E|----------------------------------------------------------------|

G|----------------------------------------------------------------|
D|----------------------------3-------------------------------3---|
A|--------------------3---5---------------------------3---5-------|
E|1-----------3---5---------------1-----------3---5---------------|

G|----------------------------------------------------------------|
D|--------------------------------------------5---5-------3-------|
A|1-----------1---1-------0---------------------------------------|
E|--------------------------------3-------------------------------|

G|------------------------------------------------------------5---|
D|----------------------------------------------------5---7-------|
A|6-----------6---6-------5-------3-----------5---7---------------|
E|----------------------------------------------------------------|

1:00

G|----------------------------------------------------------------|
D|----------------5---5-------5-------------------5---5-----------|
A|3-----------3-------------------3-----------3---------------3---|
E|----------------------------------------------------------------|

G|----------------------------------------------------------------|
D|3---------------3---3-------3-------------------------------2---|
A|------------3-------------------1-----1-1-------1---3---5-------|
E|----------------------------------------------------------------|

G|----------------------------------------------------------------|
D|3-----------3---1---1-------2---3-----------3-------------------|
A|------------------------------------------------3---3-----------|
E|------------------------------------------------------------1---|

G|----------------------------------------------------------------|
D|------------------------3-------------------------------3-------|
A|----------------3-/-5---------------------------3-/-5-----------|
E|1-------------------------------1-------------------------------|

G|--------------------------------|
D|--------------------------------|
A|--------------------------------|
E|1-------------------------------|

1:20

G|----------------------------------------------------------------|
D|3-------------------------------1-------------------------------|
A|----------------3---3---------------------------1---1-----------|
E|----------------------------------------------------------------|

G|----------------------------------------------------------------|
D|3-------------------------------3-------------------------------|
A|----------------3---3---------------------------3---3-----------|
E|----------------------------------------------------------------|

G|----------------------------------------------------------------|
D|----------------------------------------------------------------|
A|----------------5---5-------------------------------------------|
E|3-------------------------------3---------------3---3-----------|

G|----------------------------------------------------------------|
D|----------------5---5-------------------------------------------|
A|3-------------------------------3---------------3---3-----------|
E|----------------------------------------------------------------|

1:36

G|----------------------------------------------------------------|
D|3---------------3---3-----------1-------------------------------|
A|------------------------------------------------1---1-----------|
E|----------------------------------------------------------------|

G|----------------------------------------------------------------|
D|3---------------3---3---------------------------------------2---|
A|----------------------------0---1-----1-1-----1-1---3---5-------|
E|----------------------------------------------------------------|

G|----------------------------------------------------------------|
D|3---------------3---3-------------------------------------------|
A|--------------------------------3---------------3---3-----------|
E|----------------------------------------------------------------|

G|----------------------------------------------------------------|
D|3-------------------------------3-------3-----------------------|
A|----------------3---3-------------------------------------------|
E|----------------------------------------------------------------|

1:53

G|----------------------------5-------------------------------5---|
D|--------------------5---7---------------------------5---7-------|
A|3-----------5---7---------------3-----------5---7---------------|
E|----------------------------------------------------------------|

G|----------------------------------------------------------------|
D|----------------------------3-------------------------------3---|
A|--------------------3---5---------------------------3---5-------|
E|1-----------3---5---------------1-----------3---5---------------|

G|----------------------------------------------------------------|
D|--------------------------------------------5---5-------3-------|
A|1-----------1---1-------0---------------------------------------|
E|--------------------------------3-------------------------------|

G|------------------------------------------------------------5---|
D|----------------------------------------------------5---7-------|
A|6-----------6---6-------5-------3-----------5---7---------------|
E|----------------------------------------------------------------|

2:10

G|----------------------------------------------------------------|
D|----------------5---5-------5-------------------5---5-----------|
A|3-----------3-------------------3-----------3---------------3---|
E|----------------------------------------------------------------|

G|----------------------------------------------------------------|
D|3---------------3---3---------------------------------------2---|
A|------------3---------------0---1-------1-----1-1---3---5-------|
E|----------------------------------------------------------------|

G|----------------------------------------------------------------|
D|3-----------3---1---1-------2---3-----------3---------------2---|
A|------------------------------------------------3---3-----------|
E|----------------------------------------------------------------|

G|----------------------------------------------------------------|
D|3-----------3---------------2---3-----3-3-----3-3---3-----------|
A|----------------3---3---------------------------------------3---|
E|----------------------------------------------------------------|

G|----------------------------------------------------------------|
D|3-----------3---1---1-------2---3-----------3-------------------|
A|------------------------------------------------3---3-----------|
E|------------------------------------------------------------1---|

Until fadeout.

G|----------------------------------------------------------------|
D|------------------------3-------------------------------3-------|
A|----------------3-/-5---------------------------3-/-5-----------|
E|1-------------------------------1-------------------------------|

            
            
Suggest correction
Creating personal tab
Creating personal tab
You can edit any tab online and save it as your Personal.

You can edit, replace or remove any tab part or add personal notes – all changes will be seen only by you.

Personal tabs can be accessed anytime from any device, even offline.
Learn more »
Give kudos to tab author, rate the tab!
1 2 3 4 5
comments
print report bad tab
guest
You may want to rate the tab now too:
select rating
Wanna post a correction for this tab? Suggest correction