Oops, an error
Loading. Please wait.

Down Down Down tab

version 2
version 2

Whole song

Interactive

12,230 views 15 this week
2 commentsread comments
1 2 3 4 5
x 7
add to favorites
×
Save as Personal and add changes to this tab that will be seen only by you. Learn more ›
×
You can save this tab as Personal to edit and correct it or add notes. All changes will be seen only by you. Learn more »
launch autoscroll
font size
0
reset
how to read this tab
guitar tuner
edit
Autoscroll
slow
fast
+/-
esc
set tempo
stop
Author
-----------------------------------------------------------------------------
                             DOWN DOWN DOWN - Charlie Simpson
-----------------------------------------------------------------------------
Tabbed by: Tom
Email: t.loud@hotmail.com
if you think its wrong let me no where i think its mostly right i based it on a live 
performance: http://www.youtube.com/watch?v=dYJXWg9Us-8&feature=related

love the song :), standard tuning

all the fingerpicking is similar to the pattern of this

E|------------     E------------|
B|--8-----8---     B-0-----0----|
G|----0-----0   or G---0-----0--|
D|------0-----     D-----0------|
A|--7-----7---     A-0-----0----|
e-------------     e------------|

but its best to watch and listen to the video of him playing it and see the way he does it.


Intro:
e|--------------------------|
B|--8-----8---7---5---------|
G|----0-----0-------0-------|   x2
D|------0-------------0-----|
A|--7-----7---5-0-3---------|
E|--------------------------|

Verse:

e|--------------------------|
B|--8-----8---7---5---------|
G|----0-----0-------0-------|   x8
D|------0-------------0-----|
A|--7-----7---5-0-3---------|
E|--------------------------|

Chorus:

e|-0-0-0-x-x-x-x--x---|
B|-0-1-0-7-8-3-10-8---|
G|-1-0-0-0-0-0-0--0---|   x2 same picking pattern as intro x7008x on
D|-2-2-0-0-0-0-0--0---|       all chords chords but pause on the last x7008x
A|-2-3-2-5-7-2-9--7---|
E|-0-3-3-x-x-x-x--x---|


verse x8

chorus x2 again but at the end play this instead of playing x90010x and x7008x
strum these:
e|---0--0--------0-0---------------|
B|--10--10-------8-8---------------|
G|---0--0---x1---0-0--x6ish--------|   x1 at end of second play of chorus
D|---0--0--------0-0---------------|
A|--h9--0-------h7-0---------------|
E|---10-10-------8-8---------------|

e|--0-0------x-----x------------|
B|--3-3------5-----3------------|
G|--0-0------0-----0------------|   x4
D|--0-0--x6--4-x3--2---x3-------|
A|-h2-0------5-----3------------|
E|--3-3------0-----0------------|


outro:

e|-0-0-0-0-0-0-0-0------------------|  all finger picked similarly to x7008x
B|-3-3-3-1-3-3-0-1------------------|   apart from the last chord
G|-0-0-0-0-0-0-1-0------------------|   x1 strum slowly last 332010
D|-0-0-2-2-0-0-2-2------------------|
A|-2-0-2-3-2-2-2-3------------------|
E|-3-2-0-3-3-0-0-3------------------|




Thanks :)

            
            
Suggest correction
Creating personal tab
Creating personal tab
You can edit any tab online and save it as your Personal.

You can edit, replace or remove any tab part or add personal notes – all changes will be seen only by you.

Personal tabs can be accessed anytime from any device, even offline.
Learn more »
comments
print report bad tab
2 comments total.
-2 reply
popkiem 208 May 09, 2014 01:47 PM

missing a few notes on the intro but otherwise great:

Intro:
e|-----------------------------------|
B|--8-----8--------7-8-7---5---------|
G|----0-----0---0-------------0---0--| x2
D|------0-----0-----------------0----|
A|--7-----7--------5-5-5---3---------|
E|-----------------------------------|

0 reply
black_guitar52 70 Jul 24, 2014 06:46 AM

Nice tab. :)

guest
You may want to rate the tab now too:
select rating
Wanna post a correction for this tab? Suggest correction