Oops, an error
Loading. Please wait.

Little Hands chords

295 views 18 this week
1 commentread comment
1 2 3 4 5
x 9
add to favorites
×
Save as Personal and add changes to this tab that will be seen only by you. Learn more ›
×
You can save this tab as Personal to edit and correct it or add notes. All changes will be seen only by you. Learn more »
launch autoscroll
font size
0
reset
transpose
0
reset
display chords
guitar tuner
edit
Autoscroll
slow
fast
+/-
esc
set tempo
stop
Author
Strumming
There is no strumming pattern for this song yet. and get +5 IQ
SONG:   LITTLE HANDS
ARTIST: CHARLIE SIMPSON
VIDEO:  https://youtu.be/K1f-UuUOb9E
TAB BY: DON CZARSKI
EMAIL:  GUITARZAN7@HOTMAIL.COM


                    LITTLE HANDS
                  CHARLIE SIMPSON

INTRO:
  Eb            Gm   F            Eb
E ----------------------|------------|
B ----------------------|------------|
G -7-5-3--7-5-3--7---5--|--5/7\5-3---|
D -----------------8----|----------5-|
A ----------------------|------------|
E ----------------------|------------|

  Eb            Gm   F            Eb
E ----------------------|------------|
B ----------------------|------------|
G -7-5-3--7-5-3--7---5--|--5/7\5-3---|
D -----------------8----|----------5-|
A ----------------------|------------|
E ----------------------|------------|


VERSE:
Eb
Oh, little hands

There's fire in the night
Gm               F
Burning out of sight 
                   Eb
When you're in a strange land
                   Gm             F
I hope that I can help you walk alone 


CHORUS:
          Bb        
'Cause we all fall down
 Eb      Gm        F
Yeah, we all fall down

   Bb
We all fall down
Eb         Gm     F
Trying to find a way

     Bb
I forget where we were going 
           F                Gm
Maybe I'm lost and I don't know it
        Bb                         F   Gm
What if it don't come that easy to me? 

        Bb
What if every good intention 
      F              Gm
Is a curse and not a blessing?
       Bb                         
'Cause it don't come that easy 
   F   Gm
To me

Gm                   Eb     Bb
But as everything is raging on
                F      Gm
I will be your sea of calm
     Bb                       Eb
Even if it don't come easy to me 


INSTRUMENTAL:
  Eb                         Gm   F            Eb
E ------------|----------------------|------------|
B ------------|----------------------|------------|
G --5/7\5-3---|-7-5-3--7-5-3--7---5--|--5/7\5-3---|
D ------------|-----------------8----|----------5-|
A ------------|----------------------|------------|
E ------------|----------------------|------------|

  Eb            Gm   F            Eb
E ----------------------|------------|
B ----------------------|------------|
G -7-5-3--7-5-3--7---5--|--5/7\5-3---|
D -----------------8----|----------5-|
A ----------------------|------------|
E ----------------------|------------|


VERSE:
Eb
Oh, little eyes

Quiet as the night 
 Gm            F
Following the light 
               Eb
You'll find a warm place 
                      Gm            F
Where I will try and keep from the edge 


CHORUS:
          Bb        
'Cause we all fall down
 Eb      Gm        F
Yeah, we all fall down
   Bb
We all fall down
Eb         Gm     F   Gm
Trying to find a way

     Bb
I forget where we were going 
           F                Gm
Maybe I'm lost and I don't know it
        Bb                         F   Gm
What if it don't come that easy to me? 

        Bb
What if every good intention 
      F              Gm
Is a curse and not a blessing?
       Bb                         
'Cause it don't come that easy 
   F   Gm
To me

Gm                   Eb     Bb
But as everything is raging on
                F      Gm
I will be your sea of calm
     Bb                       Eb
Even if it don't come easy to me 


INSTRUMENTAL:
  Eb                      
E ------------|
B ------------|
G --5/7\5-3---|
D ------------|
A ------------|
E ------------|
                 Eb        Gm
                Woh oh woh oh

                          
E ------------|
B ------------|
G --5/7\5-3---|
D ------------|
A ------------|
E ------------|
               Eb  Bb
               Woh oh

                        
E ------------|
B ------------|
G --5/7\5-3---|
D ------------|
A ------------|
E ------------|
                 Eb        Gm
                Woh oh woh oh

                          
E ------------|
B ------------|
G --5/7\5-3---|
D ------------|
A ------------|
E ------------|
               Eb  Bb
               Woh oh

E ------------|
B ------------|
G --5/7b------|
D ------------|
A ------------|
E ------------|
                 Eb        Gm
                Woh oh woh oh

E ------------|
B ------------|
G --5/7\5-3---|
D ------------|
A ------------|
E ------------|
               Eb  Bb
               Woh oh

                        
E ------------|
B ------------|
G --5/7\5-3---|
D ------------|
A ------------|
E ------------|
                 Eb        Gm
                Woh oh woh oh

                          
E ------------|
B ------------|
G --5/7\5-3---|
D ------------|
A ------------|
E ------------|
               Eb  Bb
               Woh oh

E -----1-----1------1-|
B --------------------|
G ---3-----3------3---|
D -3-----3------3-----|
A --------------------|
E --------------------|


CHORUS:
     Bb
I forget where we were going 
           F                Gm
Maybe I'm lost and I don't know it
        Bb                         F   Gm
What if it don't come that easy to me? 

        Bb
What if every good intention 
      F              Gm
Is a curse and not a blessing?
       Bb                         
'Cause it don't come that easy 
   F   Gm
To me

Gm                   Eb     Bb
But as everything is raging on
                F      Gm
I will be your sea of calm
     Bb                       Eb
Even if it don't come easy to me 
Suggest correction
Creating personal tab
Creating personal tab
You can edit any tab online and save it as your Personal.

You can edit, replace or remove any tab part or add personal notes – all changes will be seen only by you.

Personal tabs can be accessed anytime from any device, even offline.
Learn more »
comments
print report bad tab
1 comment total.
0 reply
rory_over_live 10 May 20, 2017 07:08 AM

Thank you so much! Awesome tab <3

guest
You may want to rate the tab now too:
select rating
Wanna post a correction for this tab? Suggest correction