Oops, an error
Loading. Please wait.

Glitter tab

520 views 18 this week
no commentswrite comment
1 2 3 4 5
1 last vote to show rating
add to favorites
×
Save as Personal and add changes to this tab that will be seen only by you. Learn more ›
×
You can save this tab as Personal to edit and correct it or add notes. All changes will be seen only by you. Learn more »
launch autoscroll
font size
0
reset
how to read this tab
guitar tuner
edit
Autoscroll
slow
fast
+/-
esc
set tempo
stop
Author
Difficulty
About this tab version
Couldn't figure out the lyrics so here's a tab. Was this info helpful? Yes No
Charly Bliss
"Glitter"
From the album "Guppy" (2017)

Standard Tuning
Tempo = 143 bpm

[Verse 1]
     G                         Bm        C
e||------------------|-----------------|-------------------------|--------------------------||
B||------------------|-----------------|-------------------------|--------------------------||
G||------------------|-----------------|-------------------------|--------------------------||
D||--5-5-5-5-5-5-5-5-|-5-5-5-5-9-9-9-9-|-10-10-10-10-10-10-10-10-|-10-10-10-10-10-10-10-10--|| x4
A||--5-5-5-5-5-5-5-5-|-5-5-5-5-9-9-9-9-|-10-10-10-10-10-10-10-10-|-10-10-10-10-10-10-10-10--||
E||--3-3-3-3-3-3-3-3-|-3-3-3-3-7-7-7-7-|--8--8--8--8--8--8--8--8-|--8--8--8--8--8--8--8--8--||


[Pre-Chorus]
   G                 D#                Em                Bm
e|-----------------|-----------------|-----------------|-----------------|
B|-----------------|-----------------|-----------------|-----------------|
G|-----------------|-8-8-8-8-8-8-8-8-|-9-9-9-9-9-9-9-9-|-----------------|
D|-5-5-5-5-5-5-5-5-|-8-8-8-8-8-8-8-8-|-9-9-9-9-9-9-9-9-|-9-9-9-9-9-9-9-9-|
A|-5-5-5-5-5-5-5-5-|-6-6-6-6-6-6-6-6-|-7-7-7-7-7-7-7-7-|-9-9-9-9-9-9-9-9-|
E|-3-3-3-3-3-3-3-3-|-----------------|-----------------|-7-7-7-7-7-7-7-7-|


[Chorus]
     C                 G                 Bm7
e||------------------|-----------------|------------------||
B||--5-5-5-5-5-5-5-5-|-----------------|-3-3-3-3-3-3-3-3--||
G||--5-5-5-5-5-5-5-5-|-4-4-4-4-4-4-4-4-|-2-2-2-2-2-2-2-2--||
D||--5-5-5-5-5-5-5-5-|-5-5-5-5-5-5-5-5-|-4-4-4-4-4-4-4-4--|| x3
A||--3-3-3-3-3-3-3-3-|-5-5-5-5-5-5-5-5-|-2-2-2-2-2-2-2-2--||
E||------------------|-3-3-3-3-3-3-3-3-|------------------||


e|-----------------|-----------------|-----------------|-----------------|
B|-5-5-5-5-5-5-5-5-|-----------------|-3-3-3-3-3-3-3-3-|-3-3-3-3-3-3-3-3-|
G|-5-5-5-5-5-5-5-5-|-4-4-4-4-4-4-4-4-|-2-2-2-2-2-2-2-2-|-2-2-2-2-2-2-2-2-|
D|-5-5-5-5-5-5-5-5-|-5-5-5-5-5-5-5-5-|-4-4-4-4-4-4-4-4-|-4-4-4-4-4-4-4-4-|
A|-3-3-3-3-3-3-3-3-|-5-5-5-5-5-5-5-5-|-2-2-2-2-2-2-2-2-|-2-2-2-2-2-2-2-2-|
E|-----------------|-3-3-3-3-3-3-3-3-|-----------------|-----------------|


[Interlude]
   Gtr II
e|-----------------|-------------------|-----------------|-------------------|
B|-----------------|-------------------|-----------------|-------------------|
G|-----------------|-------------------|-----------------|-------------------|
D|-5-----5-----5---|-(5)-5-----5---5---|-5-----5-----5---|-(5)-7-----7---7---|
A|-----------------|-------------------|-----------------|-------------------|
E|-3-----3-----3---|-(3)-3-----3---3---|-3-----3-----3---|-(3)-5-----5---5---|
 |
 | Gtr I
e|-----------------|-------------------|-----------------|-------------------|
B|-----------------|-------------------|-----------------|-------------------|
G|-----------------|-------------------|-----------------|-------------------|
D|-5-5-5-5-5-5-5-5-|--5--5-5-5-5-5-5-5-|-5-5-5-5-5-5-5-5-|--9--9-9-9-9-9-9-9-|
A|-5-5-5-5-5-5-5-5-|--5--5-5-5-5-5-5-5-|-5-5-5-5-5-5-5-5-|--9--9-9-9-9-9-9-9-|
E|-3-3-3-3-3-3-3-3-|--3--3-3-3-3-3-3-3-|-3-3-3-3-3-3-3-3-|--7--7-7-7-7-7-7-7-|


e|-------------------------|--------------------------|-----------------|-------------------|
B|-------------------------|--------------------------|-----------------|-------------------|
G|-------------------------|--------------------------|-----------------|-------------------|
D|--9--------9--------9----|-(9)--9--------9-----9----|-7-----7-----7---|-(7)-5-----5---5---|
A|-------------------------|--------------------------|-----------------|-------------------|
E|--7--------7--------7----|-(7)--7--------7-----7----|-5-----5-----5---|-(5)-3-----3---3---|
|
e|-------------------------|--------------------------|-----------------|-------------------|
B|-------------------------|--------------------------|-----------------|--0--0-0-0-0-0-0-0-|
G|-------------------------|--------------------------|-7-7-7-7-7-7-7-7-|--2--2-2-2-2-2-2-2-|
D|-10-10-10-10-10-10-10-10-|-10--10-10-10-10-10-10-10-|-7-7-7-7-7-7-7-7-|--2--2-2-2-2-2-2-2-|
A|-10-10-10-10-10-10-10-10-|-10--10-10-10-10-10-10-10-|-7-7-7-7-7-7-7-7-|--2--2-2-2-2-2-2-2-|
E|--8--8--8--8--8--8--8--8-|--8---8--8--8--8--8--8--8-|-5-5-5-5-5-5-5-5-|--0--0-0-0-0-0-0-0-|


[Verse 2]
     G                         Bm        C
e||------------------|-----------------|-------------------------|--------------------------||
B||------------------|-----------------|-------------------------|--------------------------||
G||------------------|-----------------|-------------------------|--------------------------||
D||--5-5-5-5-5-5-5-5-|-5-5-5-5-9-9-9-9-|-10-10-10-10-10-10-10-10-|-10-10-10-10-10-10-10-10--|| x4
A||--5-5-5-5-5-5-5-5-|-5-5-5-5-9-9-9-9-|-10-10-10-10-10-10-10-10-|-10-10-10-10-10-10-10-10--||
E||--3-3-3-3-3-3-3-3-|-3-3-3-3-7-7-7-7-|--8--8--8--8--8--8--8--8-|--8--8--8--8--8--8--8--8--||


[Pre-Chorus]
   G                 D#                Em                Bm
e|-----------------|-----------------|-----------------|-----------------|
B|-----------------|-----------------|-----------------|-----------------|
G|-----------------|-8-8-8-8-8-8-8-8-|-9-9-9-9-9-9-9-9-|-----------------|
D|-5-5-5-5-5-5-5-5-|-8-8-8-8-8-8-8-8-|-9-9-9-9-9-9-9-9-|-9-9-9-9-9-9-9-9-|
A|-5-5-5-5-5-5-5-5-|-6-6-6-6-6-6-6-6-|-7-7-7-7-7-7-7-7-|-9-9-9-9-9-9-9-9-|
E|-3-3-3-3-3-3-3-3-|-----------------|-----------------|-7-7-7-7-7-7-7-7-|


[Chorus]
     C                 G                 Bm7
e||------------------|-----------------|------------------||
B||--5-5-5-5-5-5-5-5-|-----------------|-3-3-3-3-3-3-3-3--||
G||--5-5-5-5-5-5-5-5-|-4-4-4-4-4-4-4-4-|-2-2-2-2-2-2-2-2--||
D||--5-5-5-5-5-5-5-5-|-5-5-5-5-5-5-5-5-|-4-4-4-4-4-4-4-4--|| x3
A||--3-3-3-3-3-3-3-3-|-5-5-5-5-5-5-5-5-|-2-2-2-2-2-2-2-2--||
E||------------------|-3-3-3-3-3-3-3-3-|------------------||


e|-----------------|-----------------|-----------------|-----------------|
B|-5-5-5-5-5-5-5-5-|-----------------|-3-3-3-3-3-3-3-3-|-3-3-3-3-3-3-3-3-|
G|-5-5-5-5-5-5-5-5-|-4-4-4-4-4-4-4-4-|-2-2-2-2-2-2-2-2-|-2-2-2-2-2-2-2-2-|
D|-5-5-5-5-5-5-5-5-|-5-5-5-5-5-5-5-5-|-4-4-4-4-4-4-4-4-|-4-4-4-4-4-4-4-4-|
A|-3-3-3-3-3-3-3-3-|-5-5-5-5-5-5-5-5-|-2-2-2-2-2-2-2-2-|-2-2-2-2-2-2-2-2-|
E|-----------------|-3-3-3-3-3-3-3-3-|-----------------|-----------------|


[Bridge]
e|-----------------|-----------------|-----------------|-----------------|
B|-----------------|-----------------|-----------------|-----------------|
G|-----------------|-8-8-8-8-8-8-8-8-|-9-9-9-9-9-9-9-9-|-----------------|
D|-5-5-5-5-5-5-5-5-|-8-8-8-8-8-8-8-8-|-9-9-9-9-9-9-9-9-|-9-9-9-9-9-9-9-9-|
A|-5-5-5-5-5-5-5-5-|-6-6-6-6-6-6-6-6-|-7-7-7-7-7-7-7-7-|-9-9-9-9-9-9-9-9-|
E|-3-3-3-3-3-3-3-3-|-----------------|-----------------|-7-7-7-7-7-7-7-7-|

   Gtr II
e|-----------------|-----------------|-----------------|-------------------------|
B|-----------------|-----------------|-----------------|-12--------12------------|
G|-----------------|-----------------|-----------------|-14b16-----14b16---------|
D|-----------------|-----------------|-----------------|-------------------------|
A|-----------------|-----------------|-----------------|-------------------------|
E|-----------------|-----------------|-----------------|-------------------------|
 |
 | Gtr I
e|-----------------|-----------------|-----------------|-------------------------|
B|-----------------|-----------------|-----------------|-------------------------|
G|-----------------|-8-8-8-8-8-8-8-8-|-9-9-9-9-9-9-9-9-|-------------------------|
D|-5-5-5-5-5-5-5-5-|-8-8-8-8-8-8-8-8-|-9-9-9-9-9-9-9-9-|--9----9-9--9----9-9-9-9-|
A|-5-5-5-5-5-5-5-5-|-6-6-6-6-6-6-6-6-|-7-7-7-7-7-7-7-7-|--9----9-9--9----9-9-9-9-|
E|-3-3-3-3-3-3-3-3-|-----------------|-----------------|--7----7-7--7----7-7-7-7-|


[Solo]
   Gtr II
e|------------------|-----------------|-----------------|
B|------------------|-----------------|-----------------|
G|--------5-----7\\\|\4---------------|-7-----7---------|
D|----5-7-----------|-----------------|---4-----4\------|
A|-/7---------------|-----------------|-----------------|
E|------------------|-----------------|-----------------|
 |
 | Gtr I
e|------------------|-----------------|-----------------|
B|--5-5-5-5-5-5-5-5-|-----------------|-3-3-3-3-3-3-3-3-|
G|--5-5-5-5-5-5-5-5-|-4-4-4-4-4-4-4-4-|-2-2-2-2-2-2-2-2-|
D|--5-5-5-5-5-5-5-5-|-5-5-5-5-5-5-5-5-|-4-4-4-4-4-4-4-4-|
A|--3-3-3-3-3-3-3-3-|-5-5-5-5-5-5-5-5-|-2-2-2-2-2-2-2-2-|
E|------------------|-3-3-3-3-3-3-3-3-|-----------------|


e|------------------|-----------------|-----------------|
B|------------------|-----------------|-----------------|
G|--------5-----7\4-|-(4)-------------|-7-----7---------|
D|----5-7-----------|-----------------|---4-----4\------|
A|-/7---------------|-----------------|-----------------|
E|------------------|-----------------|-----------------|
 |
e|------------------|-----------------|-----------------|
B|--5-5-5-5-5-5-5-5-|-----------------|-3-3-3-3-3-3-3-3-|
G|--5-5-5-5-5-5-5-5-|-4-4-4-4-4-4-4-4-|-2-2-2-2-2-2-2-2-|
D|--5-5-5-5-5-5-5-5-|-5-5-5-5-5-5-5-5-|-4-4-4-4-4-4-4-4-|
A|--3-3-3-3-3-3-3-3-|-5-5-5-5-5-5-5-5-|-2-2-2-2-2-2-2-2-|
E|------------------|-3-3-3-3-3-3-3-3-|-----------------|


e|------------------|---------------------|-------------------|
B|------------------|---------------------|-------------------|
G|--------5-----7-4-|-(4)-----4b5r==4-2---|-------------------|
D|----5-7-----------|-------------------5-|-4---4b5-4---------|
A|-/7---------------|---------------------|-------------7-5---|
E|------------------|---------------------|-------------------|
 |
e|------------------|---------------------|-------------------|
B|--5-5-5-5-5-5-5-5-|---------------------|-3-3-3---3-3-3-3-3-|
G|--5-5-5-5-5-5-5-5-|--4--4-4-4---4-4-4-4-|-2-2-2---2-2-2-2-2-|
D|--5-5-5-5-5-5-5-5-|--5--5-5-5---5-5-5-5-|-4-4-4---4-4-4-4-4-|
A|--3-3-3-3-3-3-3-3-|--5--5-5-5---5-5-5-5-|-2-2-2---2-2-2-2-2-|
E|------------------|--3--3-3-3---3-3-3-3-|-------------------|


e|------------------|------------------|------------------------|
B|------------------|-/8---8-8---------|-11b12------------------|
G|--------5-----7---|------------------|------------------------|
D|----5-7-----------|------------------|------------------------|
A|-/7---------------|------------------|------------------------|
E|------------------|------------------|------------------------|
 |
e|------------------|------------------|------------------------|
B|--5-5-5-5-5-5-5-5-|------------------|--3----3-3-3-3-3-3-3----|
G|--5-5-5-5-5-5-5-5-|--4-4-4-4-4-4-4-4-|--2----2-2-2-2-2-2-2----|
D|--5-5-5-5-5-5-5-5-|--5-5-5-5-5-5-5-5-|--4----4-4-4-4-4-4-4----|
A|--3-3-3-3-3-3-3-3-|--5-5-5-5-5-5-5-5-|--2----2-2-2-2-2-2-2----|
E|------------------|--3-3-3-3-3-3-3-3-|------------------------|


[Chorus]
     C                 G                 Bm7
e||------------------|-----------------|------------------||
B||--5-5-5-5-5-5-5-5-|-----------------|-3-3-3-3-3-3-3-3--||
G||--5-5-5-5-5-5-5-5-|-4-4-4-4-4-4-4-4-|-2-2-2-2-2-2-2-2--||
D||--5-5-5-5-5-5-5-5-|-5-5-5-5-5-5-5-5-|-4-4-4-4-4-4-4-4--|| x3
A||--3-3-3-3-3-3-3-3-|-5-5-5-5-5-5-5-5-|-2-2-2-2-2-2-2-2--||
E||------------------|-3-3-3-3-3-3-3-3-|------------------||


e|-----------------|-----------------|-----------------|-----------------|
B|-5-5-5-5-5-5-5-5-|-----------------|-3-3-3-3-3-3-3-3-|-3-3-3-3-3-3-3-3-|
G|-5-5-5-5-5-5-5-5-|-4-4-4-4-4-4-4-4-|-2-2-2-2-2-2-2-2-|-2-2-2-2-2-2-2-2-|
D|-5-5-5-5-5-5-5-5-|-5-5-5-5-5-5-5-5-|-4-4-4-4-4-4-4-4-|-4-4-4-4-4-4-4-4-|
A|-3-3-3-3-3-3-3-3-|-5-5-5-5-5-5-5-5-|-2-2-2-2-2-2-2-2-|-2-2-2-2-2-2-2-2-|
E|-----------------|-3-3-3-3-3-3-3-3-|-----------------|-----------------|


************************************
|  /  Slide up 
|  \  Slide down 
|  b  Bend 
|  r  Release Bend
|  =  Hold Bend
| (n) Ghost Note
************************************
Suggest correction
Creating personal tab
Creating personal tab
You can edit any tab online and save it as your Personal.

You can edit, replace or remove any tab part or add personal notes – all changes will be seen only by you.

Personal tabs can be accessed anytime from any device, even offline.
Learn more »
Give kudos to tab author, rate the tab!
1 2 3 4 5
comments
print report bad tab
guest
You may want to rate the tab now too:
select rating
Wanna post a correction for this tab? Suggest correction