Oops, an error
Loading. Please wait.

Esclavo Y Amo tab

56 views 1 this week
no commentswrite comment
1 2 3 4 5
3 more votes to show rating
add to favorites
×
Save as Personal and add changes to this tab that will be seen only by you. Learn more ›
×
You can save this tab as Personal to edit and correct it or add notes. All changes will be seen only by you. Learn more »
launch autoscroll
font size
0
reset
how to read this tab
guitar tuner
edit
Autoscroll
slow
fast
+/-
esc
set tempo
stop
Ahy va para a los que les gusta la musica bolera y romantica el principio es solo
un arreglo para comezarlo bien aca, espero les guste:

6---------------------------------3--------------1--------------0----------------0
5----------------0----------------5--5-----------3---3----------2----------3-2-0-0
4--2-------------2---2------------5---5-5-5--5---3----3-3-3-----0--2-3-2-0-------2
3---2-2-1-2------2----2-2-2---2---4--------4---2-2----------2-1-1----------------2
2------------0-1-1----------1---0-3--------------1--------------0----------------1
1----------------0----------------3--------------1--------------0----------------0

  Am
  No se que tienen tus ojos
                     G
no se que tiene tu boca
                F
que domina mis antojos
                     M7
y ami sangre vuelve loca..

 Am
  No se como fui a quererte
                   G  
ni como te fui adorando
                    F
me siento morir mil veces
                      M7
cuando no te estoy mirando

     Dm
 De noche cuando me acuesto
   M7            Am
a dios le pido olvidarte
                G
y al amanecer despieto
     F             M7
tan solo para adorarte

   Dm
Que influencia tienen tus labios
      M7               Am
Que cuando me besan tiemblo
                         G
y hacen que me sienta esclavo
   F            M7
y amo del universo..

  Dm
  De noche cuando.....


6-----------------
5----------------0
4--2-------------2
3---2-2-1-2------2
2------------0-1-1
1----------------0        
                       Fin

   Esta rola va dedicada a mi y solo a mi..

          Vita te quiero mucho mi  loquita

           Disfrutenla....

            
            
Suggest correction
Creating personal tab
Creating personal tab
You can edit any tab online and save it as your Personal.

You can edit, replace or remove any tab part or add personal notes – all changes will be seen only by you.

Personal tabs can be accessed anytime from any device, even offline.
Learn more »
Give kudos to tab author, rate the tab!
1 2 3 4 5
comments
print report bad tab
guest
Wanna post a correction for this tab? Suggest correction