Oops, an error
Loading. Please wait.

Rondando Tu Esquina chords

60 views 1 this week
no commentswrite comment
1 2 3 4 5
3 more votes to show rating
add to favorites
×
Save as Personal and add changes to this tab that will be seen only by you. Learn more ›
×
You can save this tab as Personal to edit and correct it or add notes. All changes will be seen only by you. Learn more »
launch autoscroll
font size
0
reset
transpose
0
reset
display chords
guitar tuner
edit
Autoscroll
slow
fast
+/-
esc
set tempo
stop
Strumming
There is no strumming pattern for this song yet. and get +5 IQ
Am               E      
Esta noche tengo ganas de buscarla, 
Am                    E
de borrar lo que ha pasado y perdonarla.
Am                         G
Ya no me importa el que dirán
                         F 
ni de las cosas que hablarán,
                         E
total, la gente siempre habla.

Am                      E
Yo no pienzo mas que en ella a toda hora,
A                    E
es terrible esta pasión devoradora, 
Am                   G
y ella siempre sin saber,
                   F
sin siquiera sospechar
      E         A   *(A)
mi deseo de volver.

                     Bm
Qué me has dado vida mia
         E               A
que ando triste noche y dia
Am                    E
rondando siempre tu esquina
   E               Am    Am
mirando siempre tu casa.
                     G
Y esta pasión que lastima
F                    E
y este dolor que no pasa.
A     (C#m    Cm   ) Bm
Hasta cuando ire sufriendo 
       E            Am
el tormento de tu amor?

Am              E
Este pobre corazón, que no la olvida
Am                   E
me la nombra con los labios de su herida
Am                      G
y ahondando más su sinsabor,
                  F
la mariposa del dolor
                        E
cruza en la noche de mi vida.

Am                E
Compañero soy en noches de verbena
Am                 E
sin embargo, yo no puedo con mi pena,
Am                        G
y al saber que ella no está,
                    F
solo triste y sin amor
      E           A    *(A)
me pregunto sin cesar:

                     Bm
Qué me has dado vida mia...


ACORDES:
   Am    G    E    Cm  C#m    F    A    B
e--0-----3----0----3----4-----1----0----2------|
B--1-----3----0----4----5-----1----2----3------|
G--2-----0----1----5----6-----2----2----4------|
D--2-----0----2----5----6-----3----2----4------|
A--0-----2----2----3----4-----3----0----2------|
E--0-----3----0----3----4-----1----0----2------|

RASGADO (COMO BOLERO):
e-----|-^-|------|--------|---------------------|
B-----|-|-|------|--------|---------------------|
G-----`-|-`------`--------`---------------------|
D--------------------b2-------------------------|
A---b---------b1--------------------------------|
E-----------------------------------------------|

Ejemplo con:

  Am
e---0-|-^-|------|------|---|
B---1-|-|-|------|------|---|
G---2-`-|-`------`------`---|
D--------------------2------|
A-0------------3------------|
E---------------------------|

  E
e---0-|-^-|------|------|---|
B---0-|-|-|------|------|---|
G---1-`-|-`------`------`---|
D---------------------------|
A--------------------2------|
E--2------------3-----------|

            
            
Suggest correction
Creating personal tab
Creating personal tab
You can edit any tab online and save it as your Personal.

You can edit, replace or remove any tab part or add personal notes – all changes will be seen only by you.

Personal tabs can be accessed anytime from any device, even offline.
Learn more »
Give kudos to tab author, rate the tab!
1 2 3 4 5
comments
print report bad tab
guest
Wanna post a correction for this tab? Suggest correction