Oops, an error
Loading. Please wait.

Spite Tab

559 views 1 this week
no commentswrite comment
1 2 3 4 5
please rate
add to favorites
launch autoscroll
font size
0
reset
how to read this tab
guitar tuner
Autoscroll
slow
fast
+/-
esc
set tempo
stop
Help us to improve Ultimate-Guitar.com Take our survey!
×
Author
Difficulty
Tuning
intermediate
C G C F A D
I have messed around with the solo and determined that it's doable on an acoustic guitar
(the only one I have right now).  However, I have 4 other songs that I know by ear and
are not on UG so I am prioritizing getting those  on here first.  I will come back and 
edit the solo in.  Enjoy!

Key:
h - hammer on
p - pull off
b - bend string up
r - release bend
/ - slide up
\ - slide down
v - vibrato (sometimes written as ~)
t - right hand tap
x - play 'note' with heavy damping

D----------------------------------------------------------------|
A----------------------------------------------------------------|
F---7--7---7--7---7--7---7--7--7\--------------------------------|
C---7--7---7--7---7--7---7--7--7\--------------------------------|
G---5--5---5--5---5--5---5--5--5\--------------------------------|
C---0--0---0--0---0--0---0--0--0---------------------------------|

D-----------------------------------------------------------------|
A-----------------------------------------------------------------|
F-----------------------------------------------------------------|
C---------------------------------3-------------------------------| x3
G-----5-3---------------------3-5---------------------------------|
C---0-----0-6-0-0-5-0-0-3-0-0-------------------------------------|

D-----------------------------------------------------------------|
A-----------------------------------------------------------------|
F-------------------------------------7\--------------------------|
C-----------------------------3-5-3---7\--------------------------|
G-----5-3-----------------------------5\--------------------------|
C---0-----0-6-0-0-5-0-0-3-0-0-------------------------------------|

D-----------------------------------------------------------------|
A-----------------------------------------------------------------|
F-------------------------------------7\--------------------------|
C---------------------------------3---7\--------------------------| x2
G-----5-3---------------------3-5-----5\--------------------------|
C---0-----0-6-0-0-5-0-0-3-0-0-------------------------------------|

D-----------------------------------------------------------------|
A-----------------------------------------------------------------|
F-----------------------------------------------------------------|
C---------------------------------3-------------------------------|
G-----5-3---------------------3-5---------------------------------|
C---0-----0-6-0-0-5-0-0-3-0-0-------------------------------------|

D-----------------------------------------------------------------|
A-----------------------------------------------------------------|
F-----------------------------------------------------------------|
C-----------------------------3-5-3-------------------------------|
G-----5-3---------------------------------------------------------|
C---0-----0-6-0-0-5-0-0-3-0-0-------------------------------------|

D----------------------------------------------------------------|
A----------------------------------------------------------------|
F----------------5-5-5-5-\---------------------------------------|
C---5-5-5-5-\----5-5-5-5-\---------------------------------------|
G---5-5-5-5-\----3-3-3-3-\---------------------------------------|
C---5-5-5-5-\----------------------------------------------------|

D------------------------------------------------------------------|
A------------------------------------------------------------------|
F-----------5---4--------------------------------------------------|
C---0---3---5---5--------------------------------------------------| x3
G---0---3---3---2--------------------------------------------------|
C---0---3----------------------------------------------------------|

D----------------------------------------------------------------|
A----------------------------------------------------------------|
F---7--7---3--3---5--5---3--3--3---------------------------------|
C---7--7---3--3---5--5---3--3--3--0------------------------------|
G---5--5---1--1---3--3---1--1--1--0------------------------------|
C---------------------------------0------------------------------|

 -----------------------------------------| MutDd DffDct

D-----------------------------------------------------------------|
A-----------------------------------------------------------------|
F-----------------------------------------------------------------|
C---------------------------------3-------------------------------| x2
G-----5-3---------------------3-5---------------------------------|
C---0-----0-6-0-0-5-0-0-3-0-0-------------------------------------|

D-----------------------------------------------------------------|
A-----------------------------------------------------------------|
F-------------------------------------7\--------------------------|
C---------------------------------3---7\--------------------------| x2
G-----5-3---------------------3-5-----5\--------------------------|
C---0-----0-6-0-0-5-0-0-3-0-0-------------------------------------|

D-----------------------------------------------------------------|
A-----------------------------------------------------------------|
F-------------------------------------7\--------------------------|
C---------------------------------3---7\--------------------------| x2
G-----5-3---------------------3-5-----5\--------------------------|
C---0-----0-6-0-0-5-0-0-3-0-0-------------------------------------|

D-----------------------------------------------------------------|
A-----------------------------------------------------------------|
F-----------------------------------------------------------------|
C---------------------------------3-------------------------------|
G-----5-3---------------------3-5---------------------------------|
C---0-----0-6-0-0-5-0-0-3-0-0-------------------------------------|

D-----------------------------------------------------------------|
A-----------------------------------------------------------------|
F-----------------------------------------------------------------|
C-----------------------------3-5-3-------------------------------|
G-----5-3---------------------------------------------------------|
C---0-----0-6-0-0-5-0-0-3-0-0-------------------------------------|

D----------------------------------------------------------------|
A----------------------------------------------------------------|
F----------------5-5-5-5-\---------------------------------------|
C---5-5-5-5-\----5-5-5-5-\---------------------------------------|
G---5-5-5-5-\----3-3-3-3-\---------------------------------------|
C---5-5-5-5-\----------------------------------------------------|

D----------------------------------------------------------------|
A----------------------------------------------------------------|
F-----------5---4------------------------------------------------|
C---0---3---5---5------------------------------------------------| x3
G---0---3---3---2------------------------------------------------|
C---0---3--------------------------------------------------------|

D----------------------------------------------------------------|
A----------------------------------------------------------------|
F---7--7---3--3---5--5---3--3--3---------------------------------|
C---7--7---3--3---5--5---3--3--3--0------------------------------|
G---5--5---1--1---3--3---1--1--1--0------------------------------|
C---------------------------------0------------------------------|

D----------------------------------------------------------------|
A----------------------------------------------------------------|
F----------------------------------------------------------------|
C---0-0-----3--3--5----------------------------------------------| x3
G---0-0-x8--3--3--5----------------------------------------------|
C---0-0-----3--3--5----------------------------------------------|

D----------------------------------------------------------------|
A----------------------------------------------------------------|
F----------------------------------------------------------------|
C---0-0-----0----------------------------------------------------|
G---0-0-x8--0----------------------------------------------------|
C---0-0-----0----------------------------------------------------|

D----------------------------------------------------------------|
A----------------------------------------------------------------|
F---------------------------5------7-----------------------------|
C-------3-------5---------5---- -----7---------------------------|
G-----3-------5-----x3--3-------2------5-------------------------|
C---3-----3-5-----5----------------------------------------------|

D----------------------------------------------------------------|
A----------------------------------------------------------------|
F-----------5---4------------------------------------------------|
C---0---3---5---5------------------------------------------------|
G---0---3---3---2------------------------------------------------|
C---0---3--------------------------------------------------------|

D----------------------------------------------------------------|
A----------------------------------------------------------------|
F---7--7---3--3---5--5---3--3--3---------------------------------|
C---7--7---3--3---5--5---3--3--3--0------------------------------|
G---5--5---1--1---3--3---1--1--1--0------------------------------|
C---------------------------------0------------------------------|

D----------------------------------------------------------------|
A----------------------------------------------------------------|
F-----------5---4------------------------------------------------|
C---0---3---5---5------------------------------------------------| x3
G---0---3---3---2------------------------------------------------|
C---0---3--------------------------------------------------------|

D----------------------------------------------------------------|
A----------------------------------------------------------------|
F---7--7---3--3---5--5---3--3--3---------------------------------|
C---7--7---3--3---5--5---3--3--3---------------------------------| x3
G---5--5---1--1---3--3---1--1--1---------------------------------|
C----------------------------------------------------------------|

If you find a flaw in the tab or want to request a song to be tabbed that is by the same
artist, please email paradisecity.gunsnroses@yahoo.com.
Suggest correction
Give kudos to tab author, rate the tab!
1 2 3 4 5
comments
print report bad tab
guest
You may want to rate the tab now too:
select rating
Wanna post a correction for this tab? Suggest correction