Oops, an error
Loading. Please wait.

A Lovely Sound Tab

version 2
version 2

Whole song

3,755 views 1 this week
no commentswrite comment
1 2 3 4 5
please rate
add to favorites
launch autoscroll
font size
0
reset
how to read this tab
guitar tuner
Autoscroll
slow
fast
+/-
esc
set tempo
stop
Help us to improve Ultimate-Guitar.com Take our survey!
×
Author
Difficulty
Capo
MikeyL95 521
novice
3rd fret
I do not take credit for this, i got the tab for the verses and choruses

from an unregistered user's tab: 

http://www.ultimate-guitar.com/tabs/c/chase_coy/a_lovely_sound_tab.htm

and i got the solo from ramosjuanpablo's tab: 

http://www.ultimate-guitar.com/tabs/c/chase_coy/a_lovely_sound_solo_tab.htm

i just added the additional verses and choruses,but i did not tab this out

verses and choruses are relative to capo, but solo is not



Capo 3rd Fret


Over fall break you're coming down to see me.
    F           C             Am          G
e|--1-------1------------0------------0---3--|
B|--1------1--1-1----------1--1------1----3--|
G|--2--0-3------0------0------2--0-2----0-0--|
D|--3-----------2--0-2--------2-----------0--|
A|--------------3-------------------------2--|
E|----------------------------------------3--|
                 
e|------------|
B|--------3---|
G|------0-----| 
D|---------0--|
A|--0-2-------|
E|------------|

I know the distance doesnt make this easy.
    F           C             Am          G
e|--1-------1------------0------------0---3--|
B|--1------1--1-1----------1--1------1----3--|
G|--2--0-3------0------0------2--0-2----0-0--|
D|--3-----------2--0-2--------2-----------0--|
A|--------------3-------------------------2--|
E|----------------------------------------3--|
              But when we come together we make such a lovely sound.
              F         C       Am/G/F
e|------------1------1--------0----3-1-------|
B|--------3---1-----1-1-1------1-1-3-1-------|
G|------0-----2--0-3----0----0---2-0-2-0-3---|
D|---------0--3---------2-0-2----2-0-3-------|
A|--0-2-----------------3----------2---------|
E|---------------------------------3---------|
       That's why I'd give anything i have to work this out.
       C   Am        G         C        
e|--1-------------0--3-----------------------|
B|-1---1---1-----1---3------3--1-------------|
G|---0-0---2-0-2---0-0-----0-----------------|
D|-----2---2---------0-------0-2-------------|
A|-----3-------------2--0-2----3-------------|
E|-------------------3-----------------------|

And everything I ever did didn't matter up 'till now.
    F           C             Am          G
e|--1-------1------------0------------0---3--|
B|--1------1--1-1----------1--1------1----3--|
G|--2--0-3------0------0------2--0-2----0-0--|
D|--3-----------2--0-2--------2-----------0--|
A|--------------3-------------------------2--|
E|----------------------------------------3--|
                 
e|------------|
B|--------3---|
G|------0-----| 
D|---------0--|
A|--0-2-------|
E|------------|

You make my life worth while like you've completed me somehow.
    F           C             Am          G
e|--1-------1------------0------------0---3--|
B|--1------1--1-1----------1--1------1----3--|
G|--2--0-3------0------0------2--0-2----0-0--|
D|--3-----------2--0-2--------2-----------0--|
A|--------------3-------------------------2--|
E|----------------------------------------3--|
              And when we come together it makes such a lovely sound.
              F         C       Am/G/F
e|------------1------1--------0----3-1-------|
B|--------3---1-----1-1-1------1-1-3-1-------|
G|------0-----2--0-3----0----0---2-0-2-0-3---|
D|---------0--3---------2-0-2----2-0-3-------|
A|--0-2-----------------3----------2---------|
E|---------------------------------3---------|
       That's why I'd give anything I have to work this out.
       C   Am        G         C        
e|--1-------------0--3-----------------------|
B|-1---1---1-----1---3------3--1-------------|
G|---0-0---2-0-2---0-0-----0-----------------|
D|-----2---2---------0-------0-2-------------|
A|-----3-------------2--0-2----3-------------|
E|-------------------3-----------------------|


e|--11--10--8---------11--10--8---------11--10--8-------------------------|
B|-------------11--8-------------11--6-------------11--8--8--9--11--8--6--|
G|------------------------------------------------------------------------|
D|------------------------------------------------------------------------|
A|------------------------------------------------------------------------|
E|------------------------------------------------------------------------|

e|-------------------------------------------------|
B|------------8---------8--11--9--8--6-------------|
G|--8--8--10-----8--10------------------8--8--8----|
D|-------------------------------------------------|
A|-------------------------------------------------|
E|-------------------------------------------------|

e|-------------------------------------------|
B|--8--9--11--9--8--6------------------------|
G|---------------------8--8------------------|
D|-------------------------------------------|
A|-------------------------------------------|
E|-------------------------------------------|

For the first time in my life I know that I'm in love.
    F           C             Am          G
e|--1-------1------------0------------0---3--|
B|--1------1--1-1----------1--1------1----3--|
G|--2--0-3------0------0------2--0-2----0-0--|
D|--3-----------2--0-2--------2-----------0--|
A|--------------3-------------------------2--|
E|----------------------------------------3--|
                 
e|------------|
B|--------3---|
G|------0-----| 
D|---------0--|
A|--0-2-------|
E|------------|

I could write a thousand songs about you, they would never be enough.
    F           C             Am          G
e|--1-------1------------0------------0---3--|
B|--1------1--1-1----------1--1------1----3--|
G|--2--0-3------0------0------2--0-2----0-0--|
D|--3-----------2--0-2--------2-----------0--|
A|--------------3-------------------------2--|
E|----------------------------------------3--|
              When we come together it makes such a lovely sound.
              F         C       Am/G/F
e|------------1------1--------0----3-1-------|
B|--------3---1-----1-1-1------1-1-3-1-------|
G|------0-----2--0-3----0----0---2-0-2-0-3---|
D|---------0--3---------2-0-2----2-0-3-------|
A|--0-2-----------------3----------2---------|
E|---------------------------------3---------|
       That's why I'd give anything I have to work this out
       C   Am        G         C        
e|--1-------------0--3-----------------------|
B|-1---1---1-----1---3------3--1-------------|
G|---0-0---2-0-2---0-0-----0-----------------|
D|-----2---2---------0-------0-2-------------|
A|-----3-------------2--0-2----3-------------|
E|-------------------3-----------------------|

Suggest correction
What's this?
You can suggest a correction to this tab. Community and Mods will review your correction and vote to approve or reject it.
comments
We did not receive enough feedback on this tab! Please rate:
print report bad tab
1 2 3 4 5
guest
You may want to rate the tab now too:
select rating
Please do not post tabs as comments. Select "correction" instead!