Oops, an error
Loading. Please wait.

Airplanes Tab

version 3
version 3

Whole song

415 views 1 this week
no commentswrite comment
1 2 3 4 5
please rate
add to favorites
launch autoscroll
font size
0
reset
how to read this tab
guitar tuner
Autoscroll
slow
fast
+/-
esc
set tempo
stop
Help us to improve Ultimate-Guitar.com Take our survey!
×
Contributor
Difficulty
intermediate
Alright, so i got this from watching his live video playing this song:
http://www.youtube.com/watch?v=T8C1BWeLems&feature=mfu_in_order&list=UL

Tuning: DADGAd



         d|------------------------------------------------------------|
         A|------0------0------0------0------0------0------0------0----|
 intro   G|-7------6------4------2------7------6------4------2---------|
         D|------------------------------------------------------------|
         A|----0------0------0------0------0------0------0------0------|
         D|-0------0------0------0------0------0------0------0---------|

The verse is similar to the intro, the only difference is when he says 'don't know when 
i'm coming back down, am i coming back down?' he plays this:



d|------------------------------------------------------------|
A|------0------0------0------0------0------0------0------0----|
G|-7------6------4------2------4------4------4------6---------|
D|------------------------------------------------------------|
A|----0------0------0------0------0------0------0------0------|
D|-0------0------0------0------0------0------0------0---------|

then repeat all of that crap for the second half of the verse.

then when he sings 'so i'm waiting on the landing gear' etc. play this:

d|---------------------------------|
A|------0------0------0------0-----|
G|-4------4------4------4------6~--|   Let the last two notes ring out while
D|---------------------------------|   he says 'bring us down, so i can hear
A|----0------0------0------0-------|   your' and when he says voice, start
D|-0------0------0------0------0~--|   playing this little riff thing:


d|-----------------------------------------------------|
A|------0------0------0---------------0------0------0--|
G|-11-----9------7------6--7--9--11-----9------7------7|
D|-----------------------------------------------------|
A|----0------0------0---------------0------0------0----|
D|-0------0------0------0--0--0--0------0------0------0|

When he says 'i'm getting out my cell phone now, to speed dial your house', play this:

d|---------------------------------|
A|------0------0------0------0-----|
G|-4------4------4------4------6~--|   let the last notes ring out again.
D|---------------------------------|
A|----0------0------0------0-------|
D|-0------0------0------0------0~--|

Then when he sings 'cause it rains all day when i'm away, and i can't have you with me', 
play this:

d|---------------------------------------------------------|
A|------0------0------0------0------0------0------0------0-|
G|-11-----9------7------7------6------6------6------6------|
D|---------------------------------------------------------|
A|----0------0------0------0------0------0------0------0---|
D|-0------0------0------0------0------0------0------0------|

d|---------------------------------------------------------|
A|------0------0------0------0------0------0-----0------0--|
G|-4------4------4------4------6------6------6------6------|
D|---------------------------------------------------------|
A|----0------0------0------0------0------0-----0------0----|
D|-0------0------0------0------0------0------0------0------|

then repeat that bit for when he sings 'and all that i can think about is how much you 
love the city, and i want you here with me.'

and that's basically it, just repeat all that crap for the next verse.
Suggest correction What's this?
You can suggest a correction to this tab. Community and Mods will review your correction and vote to approve or reject it.
comments
We did not receive enough feedback on this tab! Please rate:
print report bad tab
1 2 3 4 5
I want to post or [tab]
guest
You may want to rate the tab now too:
select rating
Please do not post tabs as comments. Select "correction" instead!