Oops, an error
Loading. Please wait.

December Tab

6,316 views 6 this week
no commentswrite comment
1 2 3 4 5
please rate
add to favorites
launch autoscroll
font size
0
reset
how to read this tab
guitar tuner
Autoscroll
slow
fast
+/-
esc
set tempo
stop
Help us to improve Ultimate-Guitar.com Take our survey!
×
Author
Difficulty
intermediate
Artist: Chase Coy
Song: December
Album: December EP
Year: 2008

Finger Picking Song
Standard Tuning - No Capo

I learned how to play this song by ear in about 5 minutes.
It is basically played the SAME way as every other one of his
amazing songs (: Enjoy!

Intro
|------------------------------0h2----2------------------------------------|
|------3---3-----2---2-----3--------3---3---3---3-----2---2-----3---3---3--|
|----2---2-----2---2---2-2---2------------2---2-----2---2---2-2---2---2---2|
|----0-----------------0------------------0-----------------0---------0----|
|------------0------------------------------------0------------------------|
|--------------------------------------------------------------------------|

|-------------------------------------------------------------------------|
|------3---3-----3---3-----3---3-----3---3-----3---3-----2---2-----3---3--|
|----2---2---2-2---2-----2---2---2-2---2---2-2---2-----2---2---2-2---2---2|
|------------0-------------------0---------0-------------------0---------0|
|--2-------------------------------------------------0--------------------|
|----------------------3--------------------------------------------------|

Verse 1
|------------------------------0h2----2------------------------------------|
|------3---3-----2---2-----3--------3---3---3---3-----2---2-----3---3---3--|
|----2---2-----2---2---2-2---2------------2---2-----2---2---2-2---2---2---2|
|----0-----------------0------------------0-----------------0---------0----|
|------------0------------------------------------0------------------------|
|--------------------------------------------------------------------------|

|-------------------------------------------------------------------------|
|------3---3-----3---3-----3---3-----3---3-----3---3-----2---2-----3---3--|
|----2---2---2-2---2-----2---2---2-2---2---2-2---2-----2---2---2-2---2---2|X2
|------------0-------------------0---------0-------------------0---------0|
|--2-------------------------------------------------0--------------------|
|----------------------3--------------------------------------------------|
Just tell me you're doing okay. I can't help but think of you everyday.
And I know that it's hard when I'm miles away, 
But I know we'll be together some day

Fall is gone, Winter is here. I spent all December just wanting you near. 
So I'm singing these words in the hope that you'll hear 
you're the best thing that happened this year.

Chorus
|--------------------------------0h2----2----------------------------------------|
|------3---3-----3---3-----3---3------3-------3---3-----3---3-----3---3-----3---3|
|----2---2-----2---2---2-2---2--------------2---2-----2---2---2-2---2---2-2---2--|
|----------------------0--------------------------------------0---------0--------|
|--2---------0----------------------------2---------0----------------------------|
|--------------------------------------------------------------------------------|

|---------------------------------------------------------------------------------|
|------3---3-----3---3-----3---3-----3---3-----3---3-----3---3-----3---3-----3---3|
|----2---2-----2---2-----2---2---2-2---2-----2---2-----2---2-----2---2-----2---2--|
|--------------------------------0------------------------------------------------|
|------------0---------2---------------------------------------0---------0--------|
|--3---------------------------------------3---------3----------------------------|
I've fallen in love honestly; So I'm wearing my heart on my sleeve. 
In the hope that these notes and the words that I sing make you see,
you mean more than the world does to me.


Verse 2
|------------------------------0h2----2------------------------------------|
|------3---3-----2---2-----3--------3---3---3---3-----2---2-----3---3---3--|
|----2---2-----2---2---2-2---2------------2---2-----2---2---2-2---2---2---2|
|----0-----------------0------------------0-----------------0---------0----|
|------------0------------------------------------0------------------------|
|--------------------------------------------------------------------------|

|-------------------------------------------------------------------------|
|------3---3-----3---3-----3---3-----3---3-----3---3-----2---2-----3---3--|
|----2---2---2-2---2-----2---2---2-2---2---2-2---2-----2---2---2-2---2---2|
|------------0-------------------0---------0-------------------0---------0|
|--2-------------------------------------------------0--------------------|
|----------------------3--------------------------------------------------|
Let me be honest with you;
When I said I loved you it was more than the truth. 
You see, with each lonely night and day that I must go through, 
well they just bring me closer to you


Chorus
|--------------------------------0h2----2----------------------------------------|
|------3---3-----3---3-----3---3------3-------3---3-----3---3-----3---3-----3---3|
|----2---2-----2---2---2-2---2--------------2---2-----2---2---2-2---2---2-2---2--|
|----------------------0--------------------------------------0---------0--------|
|--2---------0----------------------------2---------0----------------------------|
|--------------------------------------------------------------------------------|

|---------------------------------------------------------------------------------|
|------3---3-----3---3-----3---3-----3---3-----3---3-----3---3-----3---3-----3---3|
|----2---2-----2---2-----2---2---2-2---2-----2---2-----2---2-----2---2-----2---2--|
|--------------------------------0------------------------------------------------|
|------------0---------2---------------------------------------0---------0--------|
|--3---------------------------------------3---------3----------------------------|
I've fallen in love honestly; So I'm wearing my heart on my sleeve. 
In the hope that these notes and the words that I sing make you see,
you mean more than the world does to me.

Solo (either play this or just repeat the chorus)
|---------------------------------------------------|
|--------------------------8-7-3-0-2-3-5-7-8-7-5-3-2|
|----------2-4-6-7-7-7-6-5--------------------------|
|--0-2-4-5------------------------------------------|
|---------------------------------------------------|
|---------------------------------------------------|

|---------------------------------------------|
|----------------------------------------8-7-3|
|----------2-4-6-7-7-7-6-4-2-0----------------|
|--0-2-4-5---------------------5-2-0-0~-------|
|---------------------------------------------|
|---------------------------------------------|

Ending
|----0-----0------0-----0----0------0|
|----3-----3------3-----3----3------3|
|----2-----2----2-2-----2----2----2-2|
|----0-----0----0-------0----0----0--|
|----0---0--------------0---0--------|
|--3------------------3--------------|

|----0-----0------0----0-------|
|----3-----3------3----3-----3~|
|----2-----2----2-2----2-----2~|
|----0-----0----0------0-----0~|
|----0---0-------------0----0--|
|--3------------------3--------|
I've fallen in love honestly; So I'm wearing my heart on my sleeve. 
In the hope that these notes and the words that I sing make you see,
you mean more than the world does to me.
Suggest correction
Give kudos to tab author, rate the tab!
1 2 3 4 5
comments
print report bad tab
guest
You may want to rate the tab now too:
select rating
Wanna post a correction for this tab? Suggest correction