Oops, an error
Loading. Please wait.

Dont Fade Away Dont Fall Asleep Tab

version 1
version 1

Whole song

728 views 1 this week
no commentswrite comment
1 2 3 4 5
2 more votes to show rating
add to favorites
launch autoscroll
font size
0
reset
how to read this tab
guitar tuner
Autoscroll
slow
fast
+/-
esc
set tempo
stop
Help us to improve Ultimate-Guitar.com Take our survey!
×
Author
Difficulty
Tabbed by Robert Owens

Chase Coy
Dont Fade Away Dont Fall Asleep
Dear Juliet EP

Tuning: EADGBE

INTRO

Intro Lead:

E\---5p0-0-4p0-0-2p0-0-4p0-0-2p0--0-|
B\----------------------------------|
G\----------------------------------|
D\----------------------------------|
A\----------------------------------|
E\----------------------------------|

Intro Rhythm:


  (x6)   (x6)   (x6) (x6)
E\--0-----0------0----0------------|
B\--0-----0------0----0------------|
G\--9-----9------6----4------------|
D\--9-----9------6----4------------|
A\--7-----0------4----2------------|
E\---------------------------------|


  (x6)   (x6)   (x3) (x3)  (x12)
E\--0-----0------0----0-----0------|
B\--0-----0------0----0-----0------|
G\--9-----9------6----4-----2------|
D\--9-----9------6----4-----2------|
A\--7-----0------4----2-----0------|
E\---------------------------------|

----------------------------------------------------------------------

VERSE


Tonight, its just you and me
My hearts on my sleve
and im ready, im ready
For any....

Rhythm:

E\--0--------------------------|
B\--0--------------------------|
G\--9--------------------------|
D\--9--------------------------|
A\--7--------------------------|
E\-----------------------------|


Lead:

E\----0-0-0-0-0-0-0-0-0-0-0-0-0-0-0-0---------|
B\---5-5-5-5-5-4-4-4-4-2-2-2-2-0-0-0-0--------|
G\--------------------------------------------|
D\--------------------------------------------|
A\--------------------------------------------|
E\--------------------------------------------|

Thing, yes anything

Rhythm:
E\--0--------------------------|
B\--0--------------------------|
G\--9--------------------------|
D\--9--------------------------|
A\--0--------------------------|
E\-----------------------------|


(NOTE: do this for the next verse as well)

---------------------------------------------------------------

BRIDGE

Your my Shooting star dont fade away

E\--0---0---0---0---------------|
B\--0---0---0---0---------------|
G\--6---4---2---4---------------|
D\--6---4---2---4---------------|
A\--4---2---0---2---------------|
E\------------------------------|

And we've got one more night so please say youll stay

E\--0---0---0---0---------------|
B\--0---0---0---0---------------|
G\--6---4---2---4---------------|
D\--6---4---2---4---------------|
A\--4---2---0---2---------------|
E\------------------------------|


--------------------------------------------------------------

CHORUS

Please tell me youll never leave
and please dont fall asleep


E\--0---0---0---0---0-------------|
B\--0---0---0---0---0-------------|
G\--9---9---6---4---2-------------|
D\--9---9---6---4---2-------------|
A\--7---0---4---2---0-------------|
E\--------------------------------|

Cuase im afraid that this dream
could turn into a nightmare if i wake up tommorow and your not there

E\--0---0---0---0---0-------------|
B\--0---0---0---0---0-------------|
G\--9---9---6---4---2-------------|
D\--9---9---6---4---2-------------|
A\--7---0---4---2---0-------------|
E\--------------------------------|


Now repeat then intro and thats the whole song!
Suggest correction
Give kudos to tab author, rate the tab!
1 2 3 4 5
comments
print report bad tab
guest
You may want to rate the tab now too:
select rating
Wanna post a correction for this tab? Suggest correction