Oops, an error
Loading. Please wait.

Eight-Dollar Engagement Rings Tab

2,165 views 6 this week
no commentswrite comment
1 2 3 4 5
please rate
add to favorites
launch autoscroll
font size
0
reset
how to read this tab
guitar tuner
Autoscroll
slow
fast
+/-
esc
set tempo
stop
Help us to improve Ultimate-Guitar.com Take our survey!
×
Author
Difficulty
Capo
intermediate
4th fret
Artist: Chase Coy
Song: Eight-Dollar Engagement Rings
Album: December
Year: 2008

Hey everyone, Christofer here again with another Chase Coy tab (: All the other tabs for
song didn't seem right, but some were close. I'm not positive that this is 100% right,
I am at LEAST 95% certain. I labeled chords so you can hit the finger picking easier! I 
up for a few hours working on this so please, rate it well (:

Capo 4th Fret

Intro:

   C                        A#         E#                G
E-------------------------------------------------------------------|
B--------------------------------1-0-----------0--------------3-0-1-|
G--0---0------0---0---0---0----------0---0-------0---0---0----------|
D--------0h2----------------0h2--------------------2-------0--------| X2
A----3----------3---2---0------------------0h2----------------------|
E--------------------------------------0---------------3------------|

Verse 1:
   C              A#          E#               G
E-------------------------------------------------------------------|
B-------------1-1-1-----1-0-----------0--------------3-0-1----------|
G----0------0-0-0-2-2-------0---0--------0---0---0------------------|
D------0h2----2-0-2---2--------------------2-------0----------------|  X4
A--3----------3-2-0---------------0h2-------------------------------|
E-----------------------------0----------------3--------------------|

Chorus:

E--------------------------------------------------------------------------1-----1-----|
B--------1-------------1---------1---1---1---1-------1---1-----1-------1-----1-----1---|
G----2-----2---2---2-----2---2---0---0---2---0---0h2-------2-----2---2-2-2-----2-----2-|
D------3-----3-------3-----3-----2---0---2---0---------3-----3-----3---3---------------|
A--0-------------3-------------3-3-2-2-0-0---2-------------------------3---------------|
E------------------------------------------3-3-1---------------------------------------|

Interlude:

   C                        A#         E#                G
E-------------------------------------------------------------------|
B--------------------------------1-0-----------0--------------3-0-1-|
G--0---0------0---0---0---0----------0---0-------0---0---0----------|
D--------0h2----------------0h2--------------------2-------0--------| X2
A----3----------3---2---0------------------0h2----------------------|
E--------------------------------------0---------------3------------|


Verse 2:

   C              A#          E#               G
E-------------------------------------------------------------------|
B-------------1-1-1-----1-0-----------0--------------3-0-1----------|
G----0------0-0-0-2-2-------0---0--------0---0---0------------------|
D------0h2----2-0-2---2--------------------2-------0----------------|  X4
A--3----------3-2-0---------------0h2-------------------------------|
E-----------------------------0----------------3--------------------|


Chorus:

E--------------------------------------------------------------------------1-----1-----|
B--------1-------------1---------1---1---1---1-------1---1-----1-------1-----1-----1---|
G----2-----2---2---2-----2---2---0---0---2---0---0h2-------2-----2---2-2-2-----2-----2-|
D------3-----3-------3-----3-----2---0---2---0---------3-----3-----3---3---------------|
A--0-------------3-------------3-3-2-2-0-0---2-------------------------3---------------|
E------------------------------------------3-3-1---------------------------------------|


Interlude:

   C                        A#         E#                G
E-------------------------------------------------------------------|
B--------------------------------1-0-----------0--------------3-0-1-|
G--0---0------0---0---0---0----------0---0-------0---0---0----------|
D--------0h2----------------0h2--------------------2-------0--------| X2
A----3----------3---2---0------------------0h2----------------------|
E--------------------------------------0---------------3------------|

Verse 3:

   C              A#          E#               G
E-------------------------------------------------------------------|
B-------------1-1-1-----1-0-----------0--------------3-0-1----------|
G----0------0-0-0-2-2-------0---0--------0---0---0------------------|
D------0h2----2-0-2---2--------------------2-------0----------------|  X4
A--3----------3-2-0---------------0h2-------------------------------|
E-----------------------------0----------------3--------------------|

Chorus:

E--------------------------------------------------------------------------1-----1-----|
B--------1-------------1---------1---1---1---1-------1---1-----1-------1-----1-----1---|
G----2-----2---2---2-----2---2---0---0---2---0---0h2-------2-----2---2-2-2-----2-----2-|
D------3-----3-------3-----3-----2---0---2---0---------3-----3-----3---3---------------|
A--0-------------3-------------3-3-2-2-0-0---2-------------------------3---------------|
E------------------------------------------3-3-1---------------------------------------|

End with this:
   C
E------|
B--1---|
G--0---|
D--0h2-|
A--3---|
E------|
Suggest correction
Give kudos to tab author, rate the tab!
1 2 3 4 5
comments
print report bad tab
guest
You may want to rate the tab now too:
select rating
Wanna post a correction for this tab? Suggest correction