Oops, an error
Loading. Please wait.

Eight Dollar Engagement Rings Tab

version 1
version 1

Whole song

6,667 views 1 this week
no commentswrite comment
1 2 3 4 5
please rate
add to favorites
launch autoscroll
font size
0
reset
how to read this tab
guitar tuner
Autoscroll
slow
fast
+/-
esc
set tempo
stop
Help us to improve Ultimate-Guitar.com Take our survey!
×
Verse Riff
--1---1-------1-0----0--------3-0-|
-3-1h3-3-1--3----1-1---1---1------|
-----------2-2------2-------0-----|
------------------2---------------|
--------------------------3-------|
----------------------------------|

Chorus
----1-------0-----1-1-----1-1-----1-----1--1----1----1--6-6-6--6---6-|
--3--3-3--1--1-3--3-3-1-1-3-3-1-1-3-1H3------3----3-----6------------|
-3-3--3--0-0--0---2-2-0-0-3-3-0-0-3------3-----3----3---7----7---7---|
----------------------2-2-3-3-2-2-3---------------------8--8--8---8--|
----------------------3-3-1-1-3-3-1---------------------8------------|
--------------------------------------------------------6------------|
Suggest correction
Give kudos to tab author, rate the tab!
1 2 3 4 5
comments
print report bad tab
guest
You may want to rate the tab now too:
select rating
Please do not post tabs as comments. Select "correction" instead!