Oops, an error
Loading. Please wait.

Eight Dollar Engagement Rings Tab

version 2
version 2

Whole song

4,042 views 1 this week
no commentswrite comment
1 2 3 4 5
please rate
add to favorites
launch autoscroll
font size
0
reset
how to read this tab
guitar tuner
Tab Pro tools
  • play this tab
  • loop segment
  • change instrument
  • show fretboard
  • metronome
×
Best way to learn
"Eight Dollar Engagement Rings"
Autoscroll
slow
fast
+/-
esc
set tempo
stop
Contributor
Difficulty
Capo
intermediate
4th fret
Artist: Chase Coy
Song: Eight-Dollar Engagement Rings
Album: December
Year: 2008

I fixed the chorus from the way I had it before. Chord names are probably wrong, 
but you can get the basic idea.

Capo 4th Fret

Intro:

   C                        A#         E#                G
E-------------------------------------------------------------------|
B--------------------------------1-0-----------0--------------3-0-1-|
G--0---0------0---0---0---0----------0---0-------0---0---0----------|
D--------0h2----------------0h2--------------------2-------0--------| X2
A----3----------3---2---0------------------0h2----------------------|
E--------------------------------------0---------------3------------|

Verse 1:
   C              A#          E#               G
E-------------------------------------------------------------------|
B-------------1-1-1-----1-0-----------0--------------3-0-1----------|
G----0------0-0-0-2-2-------0---0--------0---0---0------------------|
D------0h2----2-0-2---2--------------------2-------0----------------|  X4
A--3----------3-2-0---------------0h2-------------------------------|
E-----------------------------0----------------3--------------------|

Chorus:

       F            Gsus         C   C#  A#  G#  F
E--------------------------------------------------------------------------1-----1-----|
B-----------1-----1-------1------1---1---1---1-------1---1-----1-------1-----1-----1---|
G--------2----2-------2----------0---0---2---0---0h2-------2-----2---2-2-2-----2-----2-|
D----------3----3-------0--------2---0---2---0---------3-----3-----3---3---------------|
A------------------------------3-3-2-2-0-0---2-------------------------3---------------|
E------1------------3----------------------3-3-1---------------------------------------|

Interlude:

   C                        A#         E#                G
E-------------------------------------------------------------------|
B--------------------------------1-0-----------0--------------3-0-1-|
G--0---0------0---0---0---0----------0---0-------0---0---0----------|
D--------0h2----------------0h2--------------------2-------0--------| X2
A----3----------3---2---0------------------0h2----------------------|
E--------------------------------------0---------------3------------|


Verse 2:

   C              A#          E#               G
E-------------------------------------------------------------------|
B-------------1-1-1-----1-0-----------0--------------3-0-1----------|
G----0------0-0-0-2-2-------0---0--------0---0---0------------------|
D------0h2----2-0-2---2--------------------2-------0----------------|  X4
A--3----------3-2-0---------------0h2-------------------------------|
E-----------------------------0----------------3--------------------|


Chorus:

       F            Gsus         C   C#  A#  G#  F
E--------------------------------------------------------------------------1-----1-----|
B-----------1-----1-------1------1---1---1---1-------1---1-----1-------1-----1-----1---|
G--------2----2-------2----------0---0---2---0---0h2-------2-----2---2-2-2-----2-----2-|
D----------3----3-------0--------2---0---2---0---------3-----3-----3---3---------------|
A------------------------------3-3-2-2-0-0---2-------------------------3---------------|
E------1------------3----------------------3-3-1---------------------------------------|


Interlude:

   C                        A#         E#                G
E-------------------------------------------------------------------|
B--------------------------------1-0-----------0--------------3-0-1-|
G--0---0------0---0---0---0----------0---0-------0---0---0----------|
D--------0h2----------------0h2--------------------2-------0--------| X2
A----3----------3---2---0------------------0h2----------------------|
E--------------------------------------0---------------3------------|

Verse 3:

   C              A#          E#               G
E-------------------------------------------------------------------|
B-------------1-1-1-----1-0-----------0--------------3-0-1----------|
G----0------0-0-0-2-2-------0---0--------0---0---0------------------|
D------0h2----2-0-2---2--------------------2-------0----------------|  X4
A--3----------3-2-0---------------0h2-------------------------------|
E-----------------------------0----------------3--------------------|

Chorus:

       F            Gsus         C   C#  A#  G#  F
E--------------------------------------------------------------------------1-----1-----|
B-----------1-----1-------1------1---1---1---1-------1---1-----1-------1-----1-----1---|
G--------2----2-------2----------0---0---2---0---0h2-------2-----2---2-2-2-----2-----2-|
D----------3----3-------0--------2---0---2---0---------3-----3-----3---3---------------|
A------------------------------3-3-2-2-0-0---2-------------------------3---------------|
E------1------------3----------------------3-3-1---------------------------------------|

End with this:
   C
E------|
B--1---|
G--0---|
D--0h2-|
A--3---|
E------|
comments
We did not receive enough feedback on this tab! Please rate:
print report bad tab
1 2 3 4 5
I want to post or [tab]
guest
You may want to rate the tab now too:
select rating
Please do not post tabs as comments. Select "correction" instead!