Oops, an error
Loading. Please wait.

Fixing Me Tab

3,325 views 1 this week
no commentswrite comment
1 2 3 4 5
2 more votes to show rating
add to favorites
launch autoscroll
font size
0
reset
how to read this tab
guitar tuner
Autoscroll
slow
fast
+/-
esc
set tempo
stop
Help us to improve Ultimate-Guitar.com Take our survey!
×
Author
Difficulty
novice
-------------------------------------------------------------------------------
                             Fixing Me - Chase Coy
-------------------------------------------------------------------------------
Tabbed by: anthonypaul94
Email: anthony_s26@yahoo.com

Tuning: standard
    


     intro

e|-----x------x------x------x------x------x------x------x------------|
B|-----3------3------3------3------3------3------3------3------------|
G|-----0------2------0------2------0------2------0------0------------|
D|-----0------0------0------0------0------0------0------2------------|
A|-----x------0------x------0------x------0------2------0------------|
E|-----3------x------3------x------3------x------x------x------------|
     
     verse 1
       
       i am growing up, im working on these flaws of mine
e|-----x----------------x-----------x---------------------x----------|
B|-----3----------------3-----------3---------------------3----------|
G|-----0----------------2-----------0---------------------2----------|
D|-----0----------------0-----------0---------------------0----------|
A|-----x----------------0-----------x---------------------0----------|
E|-----3----------------x-----------3---------------------x----------|
      
       i am letting go of pride and i am shedding this disguise 
e|----------x-------------------x--------x---------------------x-----|
B|----------3-------------------3--------3---------------------3-----|
G|----------0-------------------2--------0---------------------0-----|
D|----------0-------------------0--------0---------------------2-----|
A|----------x-------------------0--------2---------------------0-----|
E|----------3-------------------x--------x---------------------x-----|
      
       i am facing all the facts, i am trying to improve, i am cleaning
e|----------x-------------------x------x----------------x------x-----|
B|----------3-------------------3------3----------------3------3-----|
G|----------0-------------------2------0----------------2------0-----|
D|----------0-------------------0------0----------------0------0-----|
A|----------x-------------------0------x----------------0------x-----|
E|----------3-------------------x------3----------------x------3-----|
      
       up my act, and i am doing it for you
e|--------------x----------x------------x----------------------------|
B|--------------3----------3------------3----------------------------|
G|--------------2----------0------------0----------------------------|
D|--------------0----------0------------2----------------------------|
A|--------------0----------2------------0----------------------------|
E|--------------x----------x------------x----------------------------|
    
     Chorus 
   
   cause i am broken, and you are perfect
e|------------x-----x-------------x------x---------------------------|
B|------------3-----3-------------3------3---------------------------|
G|------------0-----0-------------0------0---------------------------|
D|------------0-----2-------------0------2---------------------------|
A|------------x-----0-------------x------0---------------------------|
E|------------3-----x-------------3------x---------------------------|
  
   and you are putting me together like a puzzle piece by piece
e|-------------x--------------------------x------x-------x-----------|
B|-------------3--------------------------3------3-------3-----------|
G|-------------0--------------------------0------2-------0-----------|
D|-------------0--------------------------0------0-------0-----------|
A|-------------x--------------------------2------0-------x-----------|
E|-------------3--------------------------x------x-------3-----------|
  
   darling don't you know you're fixing me
e|-x-------x---------x------------------x------x------x------x------x-|
B|-3-------3---------3------------------3------3------3------3------3-|
G|-0-------0---------0------------------0------2------0------2------0-|
D|-0-------0---------2--------4-2-0-----0------0------0------0------0-|
A|-x-------x---------0--------0-0-0-----x------0------x------0------x-|
E|-3-------3---------x------------------3------x------3------x------3-|

e|-x------x------x----------------------------------------------------|
B|-3------3------3----------------------------------------------------|
G|-2------0------0----------------------------------------------------|
D|-0------0------2----------------------------------------------------|
A|-0------2------0----------------------------------------------------|
E|-x------x------x----------------------------------------------------|




     verse 2
  
   i am leaving for the road, and i am leaving you behind
e|------x---------------------x--------x----------------x------------|
B|------3---------------------3--------3----------------3------------|
G|------0---------------------2--------0----------------2------------|
D|------0---------------------0--------0----------------0------------|
A|------x---------------------0--------x----------------0------------|
E|------3---------------------x--------3----------------x------------|
   
   but i swear i will come back, and i will call you every night
e|-------x------------------x---------------x------------------x-----|
B|-------3------------------3---------------3------------------3-----|
G|-------0------------------2---------------0------------------0-----|
D|-------0------------------0---------------0------------------2-----|
A|-------x------------------0---------------2------------------0-----|
E|-------3------------------x---------------x------------------x-----|
  
   i am facing all my fears, and i am trying to improve
e|------x---------------x-------------x-------------x----------------|
B|------3---------------3-------------3-------------3----------------|
G|------0---------------2-------------0-------------2----------------|
D|------0---------------0-------------0-------------0----------------|
A|------x---------------0-------------x-------------0----------------|
E|------3---------------x-------------3-------------x----------------|
  
   i have been this way for years, but i will gladly change for you
e|--------x-------------------x---------------x-------------------x--|
B|--------3-------------------3---------------3-------------------3--|
G|--------0-------------------2---------------0-------------------0--|
D|--------0-------------------0---------------0-------------------2--|
A|--------x-------------------0---------------2-------------------0--|
E|--------3-------------------x---------------x-------------------x--|
    
     Chorus
 
   cause i am broken, but you are perfect
e|------------x-----x-------------x-----x----------------------------|
B|------------3-----3-------------3-----3----------------------------|
G|------------0-----0-------------0-----0----------------------------|
D|------------0-----2-------------0-----2----------------------------|
A|------------x-----0-------------x-----0----------------------------|
E|------------3-----x-------------3-----x----------------------------|
   
    and you are putting me together like a puzzle piece by piece
e|--------------x--------------------------x------x-------x----------|
B|--------------3--------------------------3------3-------3----------|
G|--------------0--------------------------0------2-------0----------|
D|--------------0--------------------------0------0-------0----------|
A|--------------x--------------------------2------0-------x----------|
E|--------------3--------------------------x------x-------3----------|
  
   darling don't you know you're fixing me
e|-x-------x---------x------------------x------x------x------x-----x-|
B|-3-------3---------3------------------3------3------3------3-----3-|
G|-0-------0---------0------------------0------2------0------2-----0-|
D|-0-------0---------2--------4-2-0-----0------0------0------0-----0-|
A|-x-------x---------0--------0-0-0-----x------0------x------0-----x-|
E|-3-------3---------x------------------3------x------3------x-----3-|

e|-x------x------x---------------------------------------------------|
B|-3------3------3---------------------------------------------------|
G|-2------0------0---------------------------------------------------|
D|-0------0------2---------------------------------------------------|
A|-0------2------0---------------------------------------------------|
E|-x------x------x---------------------------------------------------|

     bridge
   
   and i never thought that i could ever be with you 
e|-----x-------x--------------------x-------------x------------------|
B|-----3-------3--------------------3-------------3------------------|
G|-----0-------0--------------------2-------------0------------------|
D|-----2-------0--------------------0-------------2------------------|
A|-----2-------x--------------------0-------------0------------------|
E|-----0-------3--------------------x-------------x------------------|

   and i never wanted to change before, but now i do
e|-----x-------x-------------------x---------------x-----------------|
B|-----3-------3-------------------3---------------3-----------------|
G|-----0-------0-------------------2---------------0-----------------|
D|-----2-------0-------------------0---------------2-----------------|
A|-----2-------x-------------------0---------------0-----------------|
E|-----0-------3-------------------x---------------x-----------------|


          
                           *REPEAT CHORUS*




************************************

| /   slide up
| \   slide down
| h   hammer-on
| p   pull-off
| ~   vibrato
| +   harmonic
| x   Mute note
| b   Bend
| pb  Pre-bend
| br  Bend release
| pbr Pre-bend release
| brb Bend release bend

************************************
Suggest correction
Give kudos to tab author, rate the tab!
1 2 3 4 5
comments
print report bad tab
guest
You may want to rate the tab now too:
select rating
Wanna post a correction for this tab? Suggest correction